  0
SECTION
  2
HEADER
  9
$ACADVER
  1
AC1015
  9
$ACADMAINTVER
 70
     6
  9
$DWGCODEPAGE
  3
ANSI_1254
  9
$INSBASE
 10
0.0
 20
0.0
 30
0.0
  9
$EXTMIN
 10
0.0
 20
0.0
 30
0.0
  9
$EXTMAX
 10
279.4
 20
215.9
 30
0.0
  9
$LIMMIN
 10
0.0
 20
0.0
  9
$LIMMAX
 10
279.4
 20
215.9
  9
$ORTHOMODE
 70
     0
  9
$REGENMODE
 70
     1
  9
$FILLMODE
 70
     1
  9
$QTEXTMODE
 70
     0
  9
$MIRRTEXT
 70
     1
  9
$LTSCALE
 40
1.0
  9
$ATTMODE
 70
     1
  9
$TEXTSIZE
 40
3.5
  9
$TRACEWID
 40
1.0
  9
$TEXTSTYLE
  7
Standard
  9
$CLAYER
  8
0
  9
$CELTYPE
  6
ByLayer
  9
$CECOLOR
 62
   256
  9
$CELTSCALE
 40
1.0
  9
$DISPSILH
 70
     0
  9
$DIMSCALE
 40
1.0
  9
$DIMASZ
 40
3.5
  9
$DIMEXO
 40
1.0
  9
$DIMDLI
 40
3.75
  9
$DIMRND
 40
0.0
  9
$DIMDLE
 40
0.0
  9
$DIMEXE
 40
1.0
  9
$DIMTP
 40
0.0
  9
$DIMTM
 40
0.0
  9
$DIMTXT
 40
3.5
  9
$DIMCEN
 40
2.5
  9
$DIMTSZ
 40
0.0
  9
$DIMTOL
 70
     0
  9
$DIMLIM
 70
     0
  9
$DIMTIH
 70
     1
  9
$DIMTOH
 70
     1
  9
$DIMSE1
 70
     0
  9
$DIMSE2
 70
     0
  9
$DIMTAD
 70
     1
  9
$DIMZIN
 70
     0
  9
$DIMBLK
  1

  9
$DIMASO
 70
     1
  9
$DIMSHO
 70
     1
  9
$DIMPOST
  1

  9
$DIMAPOST
  1

  9
$DIMALT
 70
     0
  9
$DIMALTD
 70
     3
  9
$DIMALTF
 40
0.0393700787
  9
$DIMLFAC
 40
1.0
  9
$DIMTOFL
 70
     1
  9
$DIMTVP
 40
0.0
  9
$DIMTIX
 70
     0
  9
$DIMSOXD
 70
     0
  9
$DIMSAH
 70
     0
  9
$DIMBLK1
  1

  9
$DIMBLK2
  1

  9
$DIMSTYLE
  2
ISO-25
  9
$DIMCLRD
 70
     0
  9
$DIMCLRE
 70
     0
  9
$DIMCLRT
 70
     0
  9
$DIMTFAC
 40
1.0
  9
$DIMGAP
 40
1.524
  9
$DIMJUST
 70
     0
  9
$DIMSD1
 70
     0
  9
$DIMSD2
 70
     0
  9
$DIMTOLJ
 70
     0
  9
$DIMTZIN
 70
     0
  9
$DIMALTZ
 70
     0
  9
$DIMALTTZ
 70
     0
  9
$DIMUPT
 70
     0
  9
$DIMDEC
 70
     2
  9
$DIMTDEC
 70
     2
  9
$DIMALTU
 70
     2
  9
$DIMALTTD
 70
     3
  9
$DIMTXSTY
  7
Standard
  9
$DIMAUNIT
 70
     0
  9
$DIMADEC
 70
     2
  9
$DIMALTRND
 40
0.0
  9
$DIMAZIN
 70
     0
  9
$DIMDSEP
 70
    44
  9
$DIMATFIT
 70
     3
  9
$DIMFRAC
 70
     0
  9
$DIMLDRBLK
  1

  9
$DIMLUNIT
 70
     2
  9
$DIMLWD
 70
    -2
  9
$DIMLWE
 70
    -2
  9
$DIMTMOVE
 70
     0
  9
$LUNITS
 70
     2
  9
$LUPREC
 70
     2
  9
$SKETCHINC
 40
1.0
  9
$FILLETRAD
 40
10.0
  9
$AUNITS
 70
     0
  9
$AUPREC
 70
     2
  9
$MENU
  1
.
  9
$ELEVATION
 40
0.0
  9
$PELEVATION
 40
0.0
  9
$THICKNESS
 40
0.0
  9
$LIMCHECK
 70
     0
  9
$CHAMFERA
 40
0.0
  9
$CHAMFERB
 40
0.0
  9
$CHAMFERC
 40
0.0
  9
$CHAMFERD
 40
0.0
  9
$SKPOLY
 70
     0
  9
$TDCREATE
 40
2459935.710327095
  9
$TDUCREATE
 40
2459935.585327095
  9
$TDUPDATE
 40
2459935.71032728
  9
$TDUUPDATE
 40
2459935.58532728
  9
$TDINDWG
 40
0.0000000116
  9
$TDUSRTIMER
 40
0.0000000116
  9
$USRTIMER
 70
     1
  9
$ANGBASE
 50
0.0
  9
$ANGDIR
 70
     0
  9
$PDMODE
 70
     0
  9
$PDSIZE
 40
-1.0
  9
$PLINEWID
 40
0.0
  9
$SPLFRAME
 70
     0
  9
$SPLINETYPE
 70
     6
  9
$SPLINESEGS
 70
     8
  9
$HANDSEED
  5
10F
  9
$SURFTAB1
 70
     6
  9
$SURFTAB2
 70
     6
  9
$SURFTYPE
 70
     6
  9
$SURFU
 70
     6
  9
$SURFV
 70
     6
  9
$UCSBASE
  2

  9
$UCSNAME
  2

  9
$UCSORG
 10
0.0
 20
0.0
 30
0.0
  9
$UCSXDIR
 10
1.0
 20
0.0
 30
0.0
  9
$UCSYDIR
 10
0.0
 20
1.0
 30
0.0
  9
$UCSORTHOREF
  2

  9
$UCSORTHOVIEW
 70
     0
  9
$UCSORGTOP
 10
0.0
 20
0.0
 30
0.0
  9
$UCSORGBOTTOM
 10
0.0
 20
0.0
 30
0.0
  9
$UCSORGLEFT
 10
0.0
 20
0.0
 30
0.0
  9
$UCSORGRIGHT
 10
0.0
 20
0.0
 30
0.0
  9
$UCSORGFRONT
 10
0.0
 20
0.0
 30
0.0
  9
$UCSORGBACK
 10
0.0
 20
0.0
 30
0.0
  9
$PUCSBASE
  2

  9
$PUCSNAME
  2

  9
$PUCSORG
 10
0.0
 20
0.0
 30
0.0
  9
$PUCSXDIR
 10
1.0
 20
0.0
 30
0.0
  9
$PUCSYDIR
 10
0.0
 20
1.0
 30
0.0
  9
$PUCSORTHOREF
  2

  9
$PUCSORTHOVIEW
 70
     0
  9
$PUCSORGTOP
 10
0.0
 20
0.0
 30
0.0
  9
$PUCSORGBOTTOM
 10
0.0
 20
0.0
 30
0.0
  9
$PUCSORGLEFT
 10
0.0
 20
0.0
 30
0.0
  9
$PUCSORGRIGHT
 10
0.0
 20
0.0
 30
0.0
  9
$PUCSORGFRONT
 10
0.0
 20
0.0
 30
0.0
  9
$PUCSORGBACK
 10
0.0
 20
0.0
 30
0.0
  9
$USERI1
 70
     0
  9
$USERI2
 70
     0
  9
$USERI3
 70
     0
  9
$USERI4
 70
     0
  9
$USERI5
 70
     0
  9
$USERR1
 40
0.0
  9
$USERR2
 40
0.0
  9
$USERR3
 40
0.0
  9
$USERR4
 40
0.0
  9
$USERR5
 40
0.0
  9
$WORLDVIEW
 70
     1
  9
$SHADEDGE
 70
     3
  9
$SHADEDIF
 70
    70
  9
$TILEMODE
 70
     1
  9
$MAXACTVP
 70
    64
  9
$PINSBASE
 10
0.0
 20
0.0
 30
0.0
  9
$PLIMCHECK
 70
     0
  9
$PEXTMIN
 10
1.0000000000E+20
 20
1.0000000000E+20
 30
1.0000000000E+20
  9
$PEXTMAX
 10
-1.0000000000E+20
 20
-1.0000000000E+20
 30
-1.0000000000E+20
  9
$PLIMMIN
 10
0.0
 20
0.0
  9
$PLIMMAX
 10
420.0
 20
297.0
  9
$UNITMODE
 70
     0
  9
$VISRETAIN
 70
     1
  9
$PLINEGEN
 70
     0
  9
$PSLTSCALE
 70
     1
  9
$TREEDEPTH
 70
  3020
  9
$CMLSTYLE
  2
Standard
  9
$CMLJUST
 70
     0
  9
$CMLSCALE
 40
20.0
  9
$PROXYGRAPHICS
 70
     1
  9
$MEASUREMENT
 70
     1
  9
$CELWEIGHT
370
    -1
  9
$ENDCAPS
280
     0
  9
$JOINSTYLE
280
     0
  9
$LWDISPLAY
290
     1
  9
$INSUNITS
 70
     4
  9
$HYPERLINKBASE
  1

  9
$STYLESHEET
  1

  9
$XEDIT
290
     1
  9
$CEPSNTYPE
380
     0
  9
$PSTYLEMODE
290
     1
  9
$FINGERPRINTGUID
  2
{3a52c2e9-7124-49dc-86fb-ed545ca3fc68}
  9
$VERSIONGUID
  2
{FAEB1C32-E019-11D5-929B-00C0DF256EC4}
  9
$EXTNAMES
290
     1
  9
$PSVPSCALE
 40
0.0
  9
$OLESTARTUP
290
     0
  0
ENDSEC
  0
SECTION
  2
CLASSES
  0
CLASS
  1
ACDBDICTIONARYWDFLT
  2
AcDbDictionaryWithDefault
  3
ObjectDBX Classes
 90
        0
280
     0
281
     0
  0
CLASS
  1
VISUALSTYLE
  2
AcDbVisualStyle
  3
ObjectDBX Classes
 90
     4095
280
     0
281
     0
  0
CLASS
  1
MATERIAL
  2
AcDbMaterial
  3
ObjectDBX Classes
 90
     1153
280
     0
281
     0
  0
CLASS
  1
SCALE
  2
AcDbScale
  3
ObjectDBX Classes
 90
     1153
280
     0
281
     0
  0
CLASS
  1
TABLESTYLE
  2
AcDbTableStyle
  3
ObjectDBX Classes
 90
     4095
280
     0
281
     0
  0
CLASS
  1
MLEADERSTYLE
  2
AcDbMLeaderStyle
  3
ACDB_MLEADERSTYLE_CLASS
 90
     4095
280
     0
281
     0
  0
CLASS
  1
SUN
  2
AcDbSun
  3
SCENEOE
 90
     1153
280
     0
281
     0
  0
CLASS
  1
ACDBPLACEHOLDER
  2
AcDbPlaceHolder
  3
ObjectDBX Classes
 90
        0
280
     0
281
     0
  0
CLASS
  1
LAYOUT
  2
AcDbLayout
  3
ObjectDBX Classes
 90
        0
280
     0
281
     0
  0
ENDSEC
  0
SECTION
  2
TABLES
  0
TABLE
  2
VPORT
  5
8
330
0
100
AcDbSymbolTable
 70
     1
  0
VPORT
  5
29
330
8
100
AcDbSymbolTableRecord
100
AcDbViewportTableRecord
  2
*Active
 70
     0
 10
0.0
 20
0.0
 11
1.0
 21
1.0
 12
139.7
 22
107.95
 13
0.0
 23
0.0
 14
10.0
 24
10.0
 15
10.0
 25
10.0
 16
0.0
 26
0.0
 36
1.0
 17
0.0
 27
0.0
 37
0.0
 40
215.9
 41
1.2941176471
 42
50.0
 43
0.0
 44
0.0
 50
0.0
 51
0.0
 71
     0
 72
  2000
 73
     1
 74
     3
 75
     0
 76
     0
 77
     0
 78
     0
281
     0
 65
     1
110
0.0
120
0.0
130
0.0
111
1.0
121
0.0
131
0.0
112
0.0
122
1.0
132
0.0
 79
     0
146
0.0
  0
ENDTAB
  0
TABLE
  2
LTYPE
  5
5
330
0
100
AcDbSymbolTable
 70
     6
  0
LTYPE
  5
14
330
5
100
AcDbSymbolTableRecord
100
AcDbLinetypeTableRecord
  2
ByBlock
 70
     0
  3

 72
    65
 73
     0
 40
0.0
  0
LTYPE
  5
15
330
5
100
AcDbSymbolTableRecord
100
AcDbLinetypeTableRecord
  2
ByLayer
 70
     0
  3

 72
    65
 73
     0
 40
0.0
  0
LTYPE
  5
16
330
5
100
AcDbSymbolTableRecord
100
AcDbLinetypeTableRecord
  2
Continuous
 70
     0
  3
Solid line
 72
    65
 73
     0
 40
0.0
  0
LTYPE
  5
6E
330
5
100
AcDbSymbolTableRecord
100
AcDbLinetypeTableRecord
  2
HIDDEN
 70
     0
  3
Hidden __ __ __ __ __ __ __ __ __ __ __ __ __ __
 72
    65
 73
     2
 40
1.905
 49
1.27
 74
     0
 49
-0.635
 74
     0
  0
LTYPE
  5
6F
330
5
100
AcDbSymbolTableRecord
100
AcDbLinetypeTableRecord
  2
PHANTOM
 70
     0
  3
Phantom ______  __  __  ______  __  __  ______
 72
    65
 73
     6
 40
12.7
 49
6.35
 74
     0
 49
-1.27
 74
     0
 49
1.27
 74
     0
 49
-1.27
 74
     0
 49
1.27
 74
     0
 49
-1.27
 74
     0
  0
LTYPE
  5
70
330
5
100
AcDbSymbolTableRecord
100
AcDbLinetypeTableRecord
  2
CENTER
 70
     0
  3
Center ____ _ ____ _ ____ _ ____ _ ____ _ ____
 72
    65
 73
     4
 40
10.16
 49
6.35
 74
     0
 49
-1.27
 74
     0
 49
1.27
 74
     0
 49
-1.27
 74
     0
  0
LTYPE
  5
71
330
5
100
AcDbSymbolTableRecord
100
AcDbLinetypeTableRecord
  2
CENTERX2
 70
     0
  3
Center (2x) ________  __  ________  __  _____
 72
    65
 73
     4
 40
20.32
 49
12.7
 74
     0
 49
-2.54
 74
     0
 49
2.54
 74
     0
 49
-2.54
 74
     0
  0
LTYPE
  5
72
330
5
100
AcDbSymbolTableRecord
100
AcDbLinetypeTableRecord
  2
DOT2
 70
     0
  3
Dot (.5x) ........................................
 72
    65
 73
     2
 40
0.635
 49
0.0
 74
     0
 49
-0.635
 74
     0
  0
ENDTAB
  0
TABLE
  2
LAYER
  5
2
330
0
100
AcDbSymbolTable
 70
    17
  0
LAYER
  5
10
330
2
100
AcDbSymbolTableRecord
100
AcDbLayerTableRecord
  2
0
 70
     0
 62
     7
  6
Continuous
370
    -3
390
F
  0
LAYER
  5
73
330
2
100
AcDbSymbolTableRecord
100
AcDbLayerTableRecord
  2
FORMAT
 70
     0
 62
     7
  6
Continuous
370
    -3
390
F
  0
LAYER
  5
74
330
2
100
AcDbSymbolTableRecord
100
AcDbLayerTableRecord
  2
YARDIMCI_GEOMETRI
 70
     0
 62
    -6
  6
Continuous
290
     0
370
    -3
390
F
  0
LAYER
  5
75
330
2
100
AcDbSymbolTableRecord
100
AcDbLayerTableRecord
  2
SAYFA_CERCEVESI
 70
     0
 62
     7
  6
Continuous
370
    25
390
F
  0
LAYER
  5
76
330
2
100
AcDbSymbolTableRecord
100
AcDbLayerTableRecord
  2
ANTET
 70
     0
 62
     7
  6
Continuous
370
    -3
390
F
  0
LAYER
  5
77
330
2
100
AcDbSymbolTableRecord
100
AcDbLayerTableRecord
  2
OLCU
 70
     0
 62
   150
  6
Continuous
370
    -3
390
F
  0
LAYER
  5
78
330
2
100
AcDbSymbolTableRecord
100
AcDbLayerTableRecord
  2
METIN
 70
     0
 62
    96
  6
Continuous
370
    -3
390
F
  0
LAYER
  5
79
330
2
100
AcDbSymbolTableRecord
100
AcDbLayerTableRecord
  2
BALON
 70
     0
 62
     5
  6
Continuous
370
    -3
390
F
  0
LAYER
  5
7A
330
2
100
AcDbSymbolTableRecord
100
AcDbLayerTableRecord
  2
VURGU
 70
     0
 62
     7
  6
Continuous
370
    -3
390
F
  0
LAYER
  5
7B
330
2
100
AcDbSymbolTableRecord
100
AcDbLayerTableRecord
  2
SILIK
 70
     0
 62
     7
  6
Continuous
370
    -3
390
F
  0
LAYER
  5
7C
330
2
100
AcDbSymbolTableRecord
100
AcDbLayerTableRecord
  2
MODEL
 70
     0
 62
     7
  6
Continuous
370
    -3
390
F
  0
LAYER
  5
7D
330
2
100
AcDbSymbolTableRecord
100
AcDbLayerTableRecord
  2
DETAYLANDıRMA
 70
     0
 62
   190
  6
Continuous
370
    -3
390
F
  0
LAYER
  5
7E
330
2
100
AcDbSymbolTableRecord
100
AcDbLayerTableRecord
  2
TOLERANS
 70
     0
 62
   230
  6
Continuous
370
    -3
390
F
  0
LAYER
  5
7F
330
2
100
AcDbSymbolTableRecord
100
AcDbLayerTableRecord
  2
MERKEZ_CIZGILERI
 70
     0
 62
    30
  6
Continuous
370
    -3
390
F
  0
LAYER
  5
80
330
2
100
AcDbSymbolTableRecord
100
AcDbLayerTableRecord
  2
KESIT-DETAY_CIZGILERI
 70
     0
 62
     7
  6
Continuous
370
    -3
390
F
  0
LAYER
  5
81
330
2
100
AcDbSymbolTableRecord
100
AcDbLayerTableRecord
  2
\U+041E\U+0421\U+0415\U+0412\U+042B\U+0415
 70
     0
 62
     7
  6
Continuous
370
    -3
390
F
  0
LAYER
  5
82
330
2
100
AcDbSymbolTableRecord
100
AcDbLayerTableRecord
  2
\U+0412\U+041E\U+0414\U+042F\U+041D\U+042B\U+0415_\U+0417\U+041D\U+0410\U+041A\U+0418
 70
     0
 62
    11
  6
Continuous
370
    -3
390
F
  0
ENDTAB
  0
TABLE
  2
STYLE
  5
3
330
0
100
AcDbSymbolTable
 70
     1
  0
STYLE
  5
11
330
3
100
AcDbSymbolTableRecord
100
AcDbTextStyleTableRecord
  2
Standard
 70
     0
 40
0.0
 41
1.0
 50
0.0
 71
     0
 42
3.5
  3
txt
  4

  0
ENDTAB
  0
TABLE
  2
VIEW
  5
6
330
0
100
AcDbSymbolTable
 70
     0
  0
ENDTAB
  0
TABLE
  2
UCS
  5
7
330
0
100
AcDbSymbolTable
 70
     0
  0
ENDTAB
  0
TABLE
  2
APPID
  5
9
330
0
100
AcDbSymbolTable
 70
     1
  0
APPID
  5
12
330
9
100
AcDbSymbolTableRecord
100
AcDbRegAppTableRecord
  2
ACAD
 70
     0
  0
ENDTAB
  0
TABLE
  2
DIMSTYLE
  5
A
330
0
100
AcDbSymbolTable
 70
     1
100
AcDbDimStyleTable
  0
DIMSTYLE
105
27
330
A
100
AcDbSymbolTableRecord
100
AcDbDimStyleTableRecord
  2
ISO-25
 70
     0
 41
2.5
 42
0.625
 43
3.75
 44
1.25
 73
     0
 74
     0
 77
     1
 78
     8
140
2.5
141
2.5
143
0.0393700787
147
0.625
171
     3
172
     1
178
     0
271
     2
272
     2
274
     3
278
    44
283
     0
284
     8
340
11
  0
ENDTAB
  0
TABLE
  2
BLOCK_RECORD
  5
1
330
0
100
AcDbSymbolTable
 70
     4
  0
BLOCK_RECORD
  5
1F
330
1
100
AcDbSymbolTableRecord
100
AcDbBlockTableRecord
  2
*Model_Space
340
22
  0
BLOCK_RECORD
  5
1B
330
1
100
AcDbSymbolTableRecord
100
AcDbBlockTableRecord
  2
*Paper_Space
340
1E
  0
BLOCK_RECORD
  5
23
330
1
100
AcDbSymbolTableRecord
100
AcDbBlockTableRecord
  2
*Paper_Space0
340
26
  0
BLOCK_RECORD
  5
8C
330
1
100
AcDbSymbolTableRecord
100
AcDbBlockTableRecord
  2
SW_CENTERMARKSYMBOL_0
340
0
102
{BLKREFS
331
97
102
}
  0
BLOCK_RECORD
  5
DE
330
1
100
AcDbSymbolTableRecord
100
AcDbBlockTableRecord
  2
SW_CENTERMARKSYMBOL_1
340
0
102
{BLKREFS
331
E9
102
}
  0
BLOCK_RECORD
  5
EA
330
1
100
AcDbSymbolTableRecord
100
AcDbBlockTableRecord
  2
SW_CENTERMARKSYMBOL_2
340
0
102
{BLKREFS
331
F5
102
}
  0
ENDTAB
  0
ENDSEC
  0
SECTION
  2
BLOCKS
  0
BLOCK
  5
20
330
1F
100
AcDbEntity
  8
0
100
AcDbBlockBegin
  2
*Model_Space
 70
     0
 10
0.0
 20
0.0
 30
0.0
  3
*Model_Space
  1

  0
ENDBLK
  5
21
330
1F
100
AcDbEntity
  8
0
100
AcDbBlockEnd
  0
BLOCK
  5
1C
330
1B
100
AcDbEntity
 67
     1
  8
0
100
AcDbBlockBegin
  2
*Paper_Space
 70
     0
 10
0.0
 20
0.0
 30
0.0
  3
*Paper_Space
  1

  0
ENDBLK
  5
1D
330
1B
100
AcDbEntity
 67
     1
  8
0
100
AcDbBlockEnd
  0
BLOCK
  5
24
330
23
100
AcDbEntity
  8
0
100
AcDbBlockBegin
  2
*Paper_Space0
 70
     0
 10
0.0
 20
0.0
 30
0.0
  3
*Paper_Space0
  1

  0
ENDBLK
  5
25
330
23
100
AcDbEntity
  8
0
100
AcDbBlockEnd
  0
BLOCK
  5
8D
330
8C
100
AcDbEntity
  8
0
100
AcDbBlockBegin
  2
SW_CENTERMARKSYMBOL_0
 70
     0
 10
0.0
 20
0.0
 30
0.0
  3
SW_CENTERMARKSYMBOL_0
  1

  0
LINE
  5
8F
330
8C
100
AcDbEntity
  8
FORMAT
 62
     0
100
AcDbLine
 10
0.0
 20
0.0
 30
0.0
 11
0.0
 21
2.5
 31
0.0
  0
LINE
  5
90
330
8C
100
AcDbEntity
  8
FORMAT
 62
     0
100
AcDbLine
 10
0.0
 20
0.0
 30
0.0
 11
-2.5
 21
0.0
 31
0.0
  0
LINE
  5
91
330
8C
100
AcDbEntity
  8
FORMAT
 62
     0
100
AcDbLine
 10
0.0
 20
0.0
 30
0.0
 11
0.0
 21
-2.5
 31
0.0
  0
LINE
  5
92
330
8C
100
AcDbEntity
  8
FORMAT
 62
     0
100
AcDbLine
 10
0.0
 20
0.0
 30
0.0
 11
2.5
 21
0.0
 31
0.0
  0
LINE
  5
93
330
8C
100
AcDbEntity
  8
FORMAT
 62
     0
100
AcDbLine
 10
0.0
 20
5.0
 30
0.0
 11
0.0
 21
103.1
 31
0.0
  0
LINE
  5
94
330
8C
100
AcDbEntity
  8
FORMAT
 62
     0
100
AcDbLine
 10
-5.0
 20
0.0
 30
0.0
 11
-103.1
 21
0.0
 31
0.0
  0
LINE
  5
95
330
8C
100
AcDbEntity
  8
FORMAT
 62
     0
100
AcDbLine
 10
0.0
 20
-5.0
 30
0.0
 11
0.0
 21
-103.1
 31
0.0
  0
LINE
  5
96
330
8C
100
AcDbEntity
  8
FORMAT
 62
     0
100
AcDbLine
 10
5.0
 20
0.0
 30
0.0
 11
103.1
 21
0.0
 31
0.0
  0
ENDBLK
  5
8E
330
8C
100
AcDbEntity
  8
0
100
AcDbBlockEnd
  0
BLOCK
  5
DF
330
DE
100
AcDbEntity
  8
0
100
AcDbBlockBegin
  2
SW_CENTERMARKSYMBOL_1
 70
     0
 10
0.0
 20
0.0
 30
0.0
  3
SW_CENTERMARKSYMBOL_1
  1

  0
LINE
  5
E1
330
DE
100
AcDbEntity
  8
FORMAT
 62
     0
100
AcDbLine
 10
0.0
 20
0.0
 30
0.0
 11
0.0
 21
2.5
 31
0.0
  0
LINE
  5
E2
330
DE
100
AcDbEntity
  8
FORMAT
 62
     0
100
AcDbLine
 10
0.0
 20
0.0
 30
0.0
 11
-2.5
 21
0.0
 31
0.0
  0
LINE
  5
E3
330
DE
100
AcDbEntity
  8
FORMAT
 62
     0
100
AcDbLine
 10
0.0
 20
0.0
 30
0.0
 11
0.0
 21
-2.5
 31
0.0
  0
LINE
  5
E4
330
DE
100
AcDbEntity
  8
FORMAT
 62
     0
100
AcDbLine
 10
0.0
 20
0.0
 30
0.0
 11
2.5
 21
0.0
 31
0.0
  0
LINE
  5
E5
330
DE
100
AcDbEntity
  8
FORMAT
 62
     0
100
AcDbLine
 10
0.0
 20
5.0
 30
0.0
 11
0.0
 21
9.5
 31
0.0
  0
LINE
  5
E6
330
DE
100
AcDbEntity
  8
FORMAT
 62
     0
100
AcDbLine
 10
-5.0
 20
0.0
 30
0.0
 11
-9.5
 21
0.0
 31
0.0
  0
LINE
  5
E7
330
DE
100
AcDbEntity
  8
FORMAT
 62
     0
100
AcDbLine
 10
0.0
 20
-5.0
 30
0.0
 11
0.0
 21
-9.5
 31
0.0
  0
LINE
  5
E8
330
DE
100
AcDbEntity
  8
FORMAT
 62
     0
100
AcDbLine
 10
5.0
 20
0.0
 30
0.0
 11
9.5
 21
0.0
 31
0.0
  0
ENDBLK
  5
E0
330
DE
100
AcDbEntity
  8
0
100
AcDbBlockEnd
  0
BLOCK
  5
EB
330
EA
100
AcDbEntity
  8
0
100
AcDbBlockBegin
  2
SW_CENTERMARKSYMBOL_2
 70
     0
 10
0.0
 20
0.0
 30
0.0
  3
SW_CENTERMARKSYMBOL_2
  1

  0
LINE
  5
ED
330
EA
100
AcDbEntity
  8
FORMAT
 62
     0
100
AcDbLine
 10
0.0
 20
0.0
 30
0.0
 11
0.0
 21
2.5
 31
0.0
  0
LINE
  5
EE
330
EA
100
AcDbEntity
  8
FORMAT
 62
     0
100
AcDbLine
 10
0.0
 20
0.0
 30
0.0
 11
-2.5
 21
0.0
 31
0.0
  0
LINE
  5
EF
330
EA
100
AcDbEntity
  8
FORMAT
 62
     0
100
AcDbLine
 10
0.0
 20
0.0
 30
0.0
 11
0.0
 21
-2.5
 31
0.0
  0
LINE
  5
F0
330
EA
100
AcDbEntity
  8
FORMAT
 62
     0
100
AcDbLine
 10
0.0
 20
0.0
 30
0.0
 11
2.5
 21
0.0
 31
0.0
  0
LINE
  5
F1
330
EA
100
AcDbEntity
  8
FORMAT
 62
     0
100
AcDbLine
 10
0.0
 20
5.0
 30
0.0
 11
0.0
 21
9.5
 31
0.0
  0
LINE
  5
F2
330
EA
100
AcDbEntity
  8
FORMAT
 62
     0
100
AcDbLine
 10
-5.0
 20
0.0
 30
0.0
 11
-9.5
 21
0.0
 31
0.0
  0
LINE
  5
F3
330
EA
100
AcDbEntity
  8
FORMAT
 62
     0
100
AcDbLine
 10
0.0
 20
-5.0
 30
0.0
 11
0.0
 21
-9.5
 31
0.0
  0
LINE
  5
F4
330
EA
100
AcDbEntity
  8
FORMAT
 62
     0
100
AcDbLine
 10
5.0
 20
0.0
 30
0.0
 11
9.5
 21
0.0
 31
0.0
  0
ENDBLK
  5
EC
330
EA
100
AcDbEntity
  8
0
100
AcDbBlockEnd
  0
ENDSEC
  0
SECTION
  2
ENTITIES
  0
LINE
  5
83
330
1F
100
AcDbEntity
  8
0
  6
Continuous
 62
     7
370
    25
100
AcDbLine
 10
154.4427292145
 20
223.2054398467
 30
0.0
 11
154.4427292145
 21
232.1475145905
 31
0.0
  0
LINE
  5
84
330
1F
100
AcDbEntity
  8
0
  6
Continuous
 62
     7
370
    25
100
AcDbLine
 10
140.4427292145
 20
232.1475145905
 30
0.0
 11
140.4427292145
 21
223.2064911975
 31
0.0
  0
CIRCLE
  5
85
330
1F
100
AcDbEntity
  8
0
  6
Continuous
 62
     7
370
    25
100
AcDbCircle
 10
147.4427292145
 20
103.5475145905
 30
0.0
 40
119.6
  0
ARC
  5
86
330
1F
100
AcDbEntity
  8
0
  6
Continuous
 62
     7
370
    25
100
AcDbCircle
 10
147.4427292145
 20
103.5475145905
 30
0.0
 40
120.6000000000005
100
AcDbArc
 50
93.327495854
 51
180.0
  0
ARC
  5
87
330
1F
100
AcDbEntity
  8
0
  6
Continuous
 62
     7
370
    25
100
AcDbCircle
 10
147.4427292145
 20
103.5475145905
 30
0.0
 40
120.6000000000005
100
AcDbArc
 50
180.0
 51
86.672504146
  0
SPLINE
  5
88
330
1F
100
AcDbEntity
  8
0
  6
Continuous
 62
     7
370
    25
100
AcDbSpline
210
0.0
220
0.0
230
1.0
 70
     8
 71
     3
 72
    14
 73
    10
 74
     0
 42
0.00000001
 43
0.00000001
 40
0.0
 40
0.0
 40
0.0
 40
0.0
 40
0.1560384583802114
 40
0.3120798233678355
 40
0.4680556145111447
 40
0.6240652471238093
 40
0.7801633747095864
 40
0.9361946450021923
 40
0.9999999999999999
 40
0.9999999999999999
 40
0.9999999999999999
 40
0.9999999999999999
 10
151.3423593237862
 20
223.2219444995002
 30
0.0
 10
150.645833743223
 20
223.2333716422913
 30
0.0
 10
149.2527696075617
 20
223.256226140733
 30
0.0
 10
146.8406377846827
 20
223.2638441948434
 30
0.0
 10
144.5316081591906
 20
223.2417838156412
 30
0.0
 10
142.5292015328861
 20
223.2023502510872
 30
0.0
 10
141.1300300926846
 20
223.174698978078
 30
0.0
 10
140.4343910339801
 20
223.1721919728805
 30
0.0
 10
140.5150824274104
 20
223.1987755758605
 30
0.0
 10
140.5385022874829
 20
223.2064911975092
 30
0.0
  0
SPLINE
  5
89
330
1F
100
AcDbEntity
  8
0
  6
Continuous
 62
     7
370
    25
100
AcDbSpline
210
0.0
220
0.0
230
1.0
 70
     8
 71
     3
 72
    11
 73
     7
 74
     0
 42
0.00000001
 43
0.00000001
 40
0.0
 40
0.0
 40
0.0
 40
0.0
 40
0.0932911801875316
 40
0.4371620257492517
 40
0.7808279815446515
 40
0.9999999999999999
 40
0.9999999999999999
 40
0.9999999999999999
 40
0.9999999999999999
 10
154.3642444103409
 20
223.2054398466626
 30
0.0
 10
154.38741052456
 20
223.1999214234341
 30
0.0
 10
154.495966825385
 20
223.1740621184854
 30
0.0
 10
153.8883301912465
 20
223.1732397601966
 30
0.0
 10
152.7650791887133
 20
223.1941257669272
 30
0.0
 10
151.7411015232479
 20
223.2141478117011
 30
0.0
 10
151.3423593237862
 20
223.2219444995002
 30
0.0
  0
CIRCLE
  5
8A
330
1F
100
AcDbEntity
  8
0
  6
Continuous
 62
     7
370
    25
100
AcDbCircle
 10
147.4427292145
 20
103.5475145905
 30
0.0
 40
100.6
  0
LINE
  5
8B
330
1F
100
AcDbEntity
  8
0
  6
Continuous
 62
     7
370
    25
100
AcDbLine
 10
154.4427292145
 20
232.1475145905
 30
0.0
 11
140.4427292145
 21
232.1475145905
 31
0.0
  0
INSERT
  5
97
330
1F
100
AcDbEntity
  8
FORMAT
 62
     7
100
AcDbBlockReference
  2
SW_CENTERMARKSYMBOL_0
 10
147.4427292145
 20
103.5475145905
 30
0.0
  0
LINE
  5
98
330
1F
100
AcDbEntity
  8
0
  6
Continuous
 62
     7
370
    25
100
AcDbLine
 10
431.6309889062
 20
-17.0524854095
 30
0.0
 11
456.6309889062
 21
-17.0524854095
 31
0.0
  0
LINE
  5
99
330
1F
100
AcDbEntity
  8
0
  6
Continuous
 62
     7
370
    25
100
AcDbLine
 10
456.6309889062
 20
224.1475145905
 30
0.0
 11
431.6309889062
 21
224.1475145905
 31
0.0
  0
ARC
  5
9A
330
1F
100
AcDbEntity
  8
0
  6
Continuous
 62
     7
370
    25
100
AcDbCircle
 10
456.6309889062
 20
-3517.4774854095
 30
0.0
 40
3741.625000000015
100
AcDbArc
 50
88.9659274141
 51
90.0
  0
ARC
  5
9B
330
1F
100
AcDbEntity
  8
0
  6
Continuous
 62
     7
370
    25
100
AcDbCircle
 10
456.6309889062
 20
-3517.4774854095
 30
0.0
 40
3741.625000000015
100
AcDbArc
 50
88.6753011053
 51
88.753025262
  0
ARC
  5
9C
330
1F
100
AcDbEntity
  8
0
  6
Continuous
 62
     7
370
    25
100
AcDbCircle
 10
456.6309889062
 20
3724.5725145905
 30
0.0
 40
3741.625000000016
100
AcDbArc
 50
270.0
 51
271.3246988947
  0
ARC
  5
9D
330
1F
100
AcDbEntity
  8
0
  6
Continuous
 62
     7
370
    25
100
AcDbCircle
 10
431.6309889062
 20
-3517.4774854095
 30
0.0
 40
3741.625000000016
100
AcDbArc
 50
91.2476012866
 51
91.3246988947
  0
ARC
  5
9E
330
1F
100
AcDbEntity
  8
0
  6
Continuous
 62
     7
370
    25
100
AcDbCircle
 10
431.6309889062
 20
-3517.4774854095
 30
0.0
 40
3741.625000000015
100
AcDbArc
 50
90.0
 51
91.0347617488
  0
ARC
  5
9F
330
1F
100
AcDbEntity
  8
0
  6
Continuous
 62
     7
370
    25
100
AcDbCircle
 10
431.6309889062
 20
3724.5725145905
 30
0.0
 40
3741.625000000016
100
AcDbArc
 50
268.6753011053
 51
270.0
  0
LINE
  5
A0
330
1F
100
AcDbEntity
  8
0
  6
Continuous
 62
     7
370
    25
100
AcDbLine
 10
364.1309889062
 20
223.5333563012
 30
0.0
 11
364.1309889062
 21
232.1475145905
 31
0.0
  0
LINE
  5
A1
330
1F
100
AcDbEntity
  8
0
  6
Continuous
 62
     7
370
    25
100
AcDbLine
 10
350.1309889062
 20
232.1475145905
 30
0.0
 11
350.1309889062
 21
223.2586342458
 31
0.0
  0
LINE
  5
A2
330
1F
100
AcDbEntity
  8
0
  6
Continuous
 62
     7
370
    25
100
AcDbLine
 10
538.1309889062
 20
223.2571376508
 30
0.0
 11
538.1309889062
 21
232.1475145905
 31
0.0
  0
LINE
  5
A3
330
1F
100
AcDbEntity
  8
0
  6
Continuous
 62
     7
370
    25
100
AcDbLine
 10
524.1309889062
 20
232.1475145905
 30
0.0
 11
524.1309889062
 21
223.5367595413
 31
0.0
  0
LINE
  5
A4
330
1F
100
AcDbEntity
  8
0
  6
Continuous
 62
     7
370
    25
100
AcDbLine
 10
543.1309889062
 20
103.5475145905
 30
0.0
 11
543.1309889062
 21
223.1475145905
 31
0.0
  0
LINE
  5
A5
330
1F
100
AcDbEntity
  8
0
  6
Continuous
 62
     7
370
    25
100
AcDbLine
 10
543.1309889062
 20
-16.0524854095
 30
0.0
 11
543.1309889062
 21
103.5475145905
 31
0.0
  0
SPLINE
  5
A6
330
1F
100
AcDbEntity
  8
0
  6
Continuous
 62
     7
370
    25
100
AcDbSpline
210
0.0
220
0.0
230
1.0
 70
     8
 71
     3
 72
    18
 73
    14
 74
     0
 42
0.00000001
 43
0.00000001
 40
0.0
 40
0.0
 40
0.0
 40
0.0
 40
0.0268479456257834
 40
0.1341020807676066
 40
0.2413794864278931
 40
0.3487177441712884
 40
0.4560100286190558
 40
0.5631896356759755
 40
0.670393500829812
 40
0.7777908567757529
 40
0.8852999343446488
 40
0.9926437991935596
 40
0.9999999999999999
 40
0.9999999999999999
 40
0.9999999999999999
 40
0.9999999999999999
 10
538.0565901812868
 20
223.257116674623
 30
0.0
 10
538.0790921802665
 20
223.257925324049
 30
0.0
 10
538.1914868091397
 20
223.261964425295
 30
0.0
 10
537.6026751769214
 20
223.2402357221715
 30
0.0
 10
536.3218147001767
 20
223.2031805337259
 30
0.0
 10
534.3931065421002
 20
223.1729263367017
 30
0.0
 10
532.1143144536276
 20
223.1778323038478
 30
0.0
 10
529.7203733223992
 20
223.2299210545367
 30
0.0
 10
527.4929075472779
 20
223.3214353614285
 30
0.0
 10
525.6499304913104
 20
223.4288815405051
 30
0.0
 10
524.5089183523082
 20
223.5093953995205
 30
0.0
 10
524.0181883378627
 20
223.5470734965373
 30
0.0
 10
524.1478490169317
 20
223.5373388744586
 30
0.0
 10
524.1561647052138
 20
223.5367145519321
 30
0.0
  0
LINE
  5
A7
330
1F
100
AcDbEntity
  8
0
  6
Continuous
 62
     7
370
    25
100
AcDbLine
 10
345.1309889062
 20
103.5475145905
 30
0.0
 11
345.1309889062
 21
223.1475145905
 31
0.0
  0
LINE
  5
A8
330
1F
100
AcDbEntity
  8
0
  6
Continuous
 62
     7
370
    25
100
AcDbLine
 10
345.1309889062
 20
-16.0524854095
 30
0.0
 11
345.1309889062
 21
103.5475145905
 31
0.0
  0
SPLINE
  5
A9
330
1F
100
AcDbEntity
  8
0
  6
Continuous
 62
     7
370
    25
100
AcDbSpline
210
0.0
220
0.0
230
1.0
 70
     8
 71
     3
 72
    18
 73
    14
 74
     0
 42
0.00000001
 43
0.00000001
 40
0.0
 40
0.0
 40
0.0
 40
0.0
 40
0.0246170443005154
 40
0.131648232085587
 40
0.2387454660939091
 40
0.3461146709025287
 40
0.4536218145483296
 40
0.5609952197193654
 40
0.6681844297291295
 40
0.7753711105168108
 40
0.8826721063555575
 40
0.9900046650949268
 40
1.0
 40
1.0
 40
1.0
 40
1.0
 10
364.0609963976898
 20
223.5333116193269
 30
0.0
 10
364.0824882179597
 20
223.5349361740764
 30
0.0
 10
364.197423224303
 20
223.5436240473273
 30
0.0
 10
363.622859163723
 20
223.4995879115136
 30
0.0
 10
362.3619411215573
 20
223.4126777006131
 30
0.0
 10
360.4465326367936
 20
223.3055908249601
 30
0.0
 10
358.1724219870032
 20
223.2187018361813
 30
0.0
 10
355.7746642023013
 20
223.1740624753556
 30
0.0
 10
353.5389825661354
 20
223.1758505353017
 30
0.0
 10
351.6860592146299
 20
223.2094777260177
 30
0.0
 10
350.5270486312361
 20
223.2449243732285
 30
0.0
 10
350.02471410056
 20
223.26356122652
 30
0.0
 10
350.1534167377813
 20
223.2589973845942
 30
0.0
 10
350.1643811037324
 20
223.2586085842239
 30
0.0
  0
LINE
  5
AA
330
1F
100
AcDbEntity
  8
0
  6
Continuous
 62
     7
370
    25
100
AcDbLine
 10
364.1309889062
 20
232.1475145905
 30
0.0
 11
350.1309889062
 21
232.1475145905
 31
0.0
  0
LINE
  5
AB
330
1F
100
AcDbEntity
  8
0
  6
Continuous
 62
     7
370
    25
100
AcDbLine
 10
538.1309889062
 20
232.1475145905
 30
0.0
 11
524.1309889062
 21
232.1475145905
 31
0.0
  0
LINE
  5
AC
330
1F
100
AcDbEntity
  8
0
  6
Continuous
 62
     1
370
    25
100
AcDbLine
 10
456.6309889062
 20
103.5475145905
 30
0.0
 11
456.6309889062
 21
224.1475145905
 31
0.0
  0
LINE
  5
AD
330
1F
100
AcDbEntity
  8
0
  6
Continuous
 62
     1
370
    25
100
AcDbLine
 10
456.6309889062
 20
-17.0524854095
 30
0.0
 11
456.6309889062
 21
103.5475145905
 31
0.0
  0
LINE
  5
AE
330
1F
100
AcDbEntity
  8
0
  6
Continuous
 62
     1
370
    25
100
AcDbLine
 10
431.6309889062
 20
103.5475145905
 30
0.0
 11
431.6309889062
 21
224.1475145905
 31
0.0
  0
LINE
  5
AF
330
1F
100
AcDbEntity
  8
0
  6
Continuous
 62
     1
370
    25
100
AcDbLine
 10
431.6309889062
 20
-17.0524854095
 30
0.0
 11
431.6309889062
 21
103.5475145905
 31
0.0
  0
LINE
  5
B0
330
1F
100
AcDbEntity
  8
0
  6
Continuous
 62
     7
370
    25
100
AcDbLine
 10
268.0427292145
 20
417.0829143117
 30
0.0
 11
268.0427292145
 21
442.0829143117
 31
0.0
  0
LINE
  5
B1
330
1F
100
AcDbEntity
  8
0
  6
Continuous
 62
     7
370
    25
100
AcDbLine
 10
26.8427292145
 20
442.0829143117
 30
0.0
 11
26.8427292145
 21
417.0829143117
 31
0.0
  0
ARC
  5
B2
330
1F
100
AcDbEntity
  8
0
  6
Continuous
 62
     7
370
    25
100
AcDbCircle
 10
3768.4677292145
 20
442.0829143117
 30
0.0
 40
3741.625000000016
100
AcDbArc
 50
178.6753011053
 51
180.0
  0
ARC
  5
B3
330
1F
100
AcDbEntity
  8
0
  6
Continuous
 62
     7
370
    25
100
AcDbCircle
 10
-3473.5822707855
 20
442.0829143117
 30
0.0
 40
3741.625000000016
100
AcDbArc
 50
0.0
 51
1.3246988947
  0
ARC
  5
B4
330
1F
100
AcDbEntity
  8
0
  6
Continuous
 62
     7
370
    25
100
AcDbCircle
 10
3768.4677292145
 20
417.0829143117
 30
0.0
 40
3741.625000000016
100
AcDbArc
 50
180.0
 51
181.3246988947
  0
ARC
  5
B5
330
1F
100
AcDbEntity
  8
0
  6
Continuous
 62
     7
370
    25
100
AcDbCircle
 10
-3473.5822707855
 20
417.0829143117
 30
0.0
 40
3741.625000000016
100
AcDbArc
 50
358.6753011053
 51
0.0
  0
LINE
  5
B6
330
1F
100
AcDbEntity
  8
0
  6
Continuous
 62
     7
370
    25
100
AcDbLine
 10
267.0427292145
 20
528.5829143117
 30
0.0
 11
27.8427292145
 21
528.5829143117
 31
0.0
  0
LINE
  5
B7
330
1F
100
AcDbEntity
  8
0
  6
Continuous
 62
     7
370
    25
100
AcDbLine
 10
267.0427292145
 20
330.5829143117
 30
0.0
 11
27.8427292145
 21
330.5829143117
 31
0.0
  0
LINE
  5
B8
330
1F
100
AcDbEntity
  8
0
  6
Continuous
 62
     1
370
    25
100
AcDbLine
 10
268.0427292145
 20
442.0829143117
 30
0.0
 11
26.8427292145
 21
442.0829143117
 31
0.0
  0
LINE
  5
B9
330
1F
100
AcDbEntity
  8
0
  6
Continuous
 62
     1
370
    25
100
AcDbLine
 10
268.0427292145
 20
417.0829143117
 30
0.0
 11
26.8427292145
 21
417.0829143117
 31
0.0
  0
LINE
  5
BA
330
1F
100
AcDbEntity
  8
0
  6
Continuous
 62
     7
370
    25
100
AcDbLine
 10
-217.2419366563
 20
224.1475145905
 30
0.0
 11
-242.2419366563
 21
224.1475145905
 31
0.0
  0
LINE
  5
BB
330
1F
100
AcDbEntity
  8
0
  6
Continuous
 62
     7
370
    25
100
AcDbLine
 10
-242.2419366563
 20
-17.0524854095
 30
0.0
 11
-217.2419366563
 21
-17.0524854095
 31
0.0
  0
ARC
  5
BC
330
1F
100
AcDbEntity
  8
0
  6
Continuous
 62
     7
370
    25
100
AcDbCircle
 10
-242.2419366563
 20
3724.5725145905
 30
0.0
 40
3741.625000000016
100
AcDbArc
 50
268.6753011053
 51
270.0
  0
ARC
  5
BD
330
1F
100
AcDbEntity
  8
0
  6
Continuous
 62
     7
370
    25
100
AcDbCircle
 10
-242.2419366563
 20
-3517.4774854095
 30
0.0
 40
3741.625000000015
100
AcDbArc
 50
91.2469744446
 51
91.3246988947
  0
ARC
  5
BE
330
1F
100
AcDbEntity
  8
0
  6
Continuous
 62
     7
370
    25
100
AcDbCircle
 10
-242.2419366563
 20
-3517.4774854095
 30
0.0
 40
3741.625000000016
100
AcDbArc
 50
90.0
 51
91.0340741689
  0
ARC
  5
BF
330
1F
100
AcDbEntity
  8
0
  6
Continuous
 62
     7
370
    25
100
AcDbCircle
 10
-217.2419366563
 20
3724.5725145905
 30
0.0
 40
3741.625000000016
100
AcDbArc
 50
270.0
 51
271.3246988947
  0
ARC
  5
C0
330
1F
100
AcDbEntity
  8
0
  6
Continuous
 62
     7
370
    25
100
AcDbCircle
 10
-217.2419366563
 20
-3517.4774854095
 30
0.0
 40
3741.625000000015
100
AcDbArc
 50
88.965239738
 51
90.0
  0
ARC
  5
C1
330
1F
100
AcDbEntity
  8
0
  6
Continuous
 62
     7
370
    25
100
AcDbCircle
 10
-217.2419366563
 20
-3517.4774854095
 30
0.0
 40
3741.625000000016
100
AcDbArc
 50
88.6753011053
 51
88.7523987157
  0
LINE
  5
C2
330
1F
100
AcDbEntity
  8
0
  6
Continuous
 62
     7
370
    25
100
AcDbLine
 10
-135.7419366563
 20
223.2586342458
 30
0.0
 11
-135.7419366563
 21
232.1475145905
 31
0.0
  0
LINE
  5
C3
330
1F
100
AcDbEntity
  8
0
  6
Continuous
 62
     7
370
    25
100
AcDbLine
 10
-149.7419366563
 20
232.1475145905
 30
0.0
 11
-149.7419366563
 21
223.5333563012
 31
0.0
  0
LINE
  5
C4
330
1F
100
AcDbEntity
  8
0
  6
Continuous
 62
     7
370
    25
100
AcDbLine
 10
-309.7419366563
 20
223.5367595413
 30
0.0
 11
-309.7419366563
 21
232.1475145905
 31
0.0
  0
LINE
  5
C5
330
1F
100
AcDbEntity
  8
0
  6
Continuous
 62
     7
370
    25
100
AcDbLine
 10
-323.7419366563
 20
232.1475145905
 30
0.0
 11
-323.7419366563
 21
223.2571376508
 31
0.0
  0
LINE
  5
C6
330
1F
100
AcDbEntity
  8
0
  6
Continuous
 62
     7
370
    25
100
AcDbLine
 10
-328.7419366563
 20
223.1475145905
 30
0.0
 11
-328.7419366563
 21
-16.0524854095
 31
0.0
  0
SPLINE
  5
C7
330
1F
100
AcDbEntity
  8
0
  6
Continuous
 62
     7
370
    25
100
AcDbSpline
210
0.0
220
0.0
230
1.0
 70
     8
 71
     3
 72
     9
 73
     5
 74
     0
 42
0.00000001
 43
0.00000001
 40
0.0
 40
0.0
 40
0.0
 40
0.0
 40
0.57146730436432
 40
1.0
 40
1.0
 40
1.0
 40
1.0
 10
-322.5551014579385
 20
223.2219444995002
 30
0.0
 10
-322.9488067052328
 20
223.23405467612
 30
0.0
 10
-323.6377441899978
 20
223.2552460487973
 30
0.0
 10
-323.6586119689185
 20
223.2565559361038
 30
0.0
 10
-323.6675544944713
 20
223.2571172656422
 30
0.0
  0
SPLINE
  5
C8
330
1F
100
AcDbEntity
  8
0
  6
Continuous
 62
     7
370
    25
100
AcDbSpline
210
0.0
220
0.0
230
1.0
 70
     8
 71
     3
 72
    15
 73
    11
 74
     0
 42
0.00000001
 43
0.00000001
 40
0.0
 40
0.0
 40
0.0
 40
0.0
 40
0.1228668421644288
 40
0.254737096231773
 40
0.386907005082137
 40
0.5193343649810259
 40
0.6516831604463235
 40
0.7837829079324918
 40
0.915803945964972
 40
1.0
 40
1.0
 40
1.0
 40
1.0
 10
-309.7670600341388
 20
223.5367184836151
 30
0.0
 10
-309.8238870529821
 20
223.5322735972506
 30
0.0
 10
-309.9417052495976
 20
223.5230581130268
 30
0.0
 10
-311.076474996143
 20
223.4409523708406
 30
0.0
 10
-312.8091528225202
 20
223.3368399139794
 30
0.0
 10
-315.0047531584295
 20
223.2406300775978
 30
0.0
 10
-317.3953003546557
 20
223.1821656668576
 30
0.0
 10
-319.7012254476152
 20
223.1711211754064
 30
0.0
 10
-321.4676730817034
 20
223.1944385616836
 30
0.0
 10
-322.2503305798576
 20
223.2142354779187
 30
0.0
 10
-322.5551014579385
 20
223.2219444995002
 30
0.0
  0
LINE
  5
C9
330
1F
100
AcDbEntity
  8
0
  6
Continuous
 62
     7
370
    25
100
AcDbLine
 10
-130.7419366563
 20
223.1475145905
 30
0.0
 11
-130.7419366563
 21
-16.0524854095
 31
0.0
  0
SPLINE
  5
CA
330
1F
100
AcDbEntity
  8
0
  6
Continuous
 62
     7
370
    25
100
AcDbSpline
210
0.0
220
0.0
230
1.0
 70
     8
 71
     3
 72
     9
 73
     5
 74
     0
 42
0.00000001
 43
0.00000001
 40
0.0
 40
0.0
 40
0.0
 40
0.0
 40
0.5648781950863151
 40
1.0
 40
1.0
 40
1.0
 40
1.0
 10
-148.5311542244165
 20
223.4520081543316
 30
0.0
 10
-148.9277753122938
 20
223.4799033245643
 30
0.0
 10
-149.6299109077679
 20
223.5292859533777
 30
0.0
 10
-149.6591849599172
 20
223.5320899332658
 30
0.0
 10
-149.6719227383256
 20
223.5333100060556
 30
0.0
  0
SPLINE
  5
CB
330
1F
100
AcDbEntity
  8
0
  6
Continuous
 62
     7
370
    25
100
AcDbSpline
210
0.0
220
0.0
230
1.0
 70
     8
 71
     3
 72
    15
 73
    11
 74
     0
 42
0.00000001
 43
0.00000001
 40
0.0
 40
0.0
 40
0.0
 40
0.0
 40
0.1201191133058704
 40
0.2525858150953529
 40
0.385133574393771
 40
0.517680456491261
 40
0.6500910130076077
 40
0.7824503455273832
 40
0.9149991735797928
 40
1.0
 40
1.0
 40
1.0
 40
1.0
 10
-135.7753721883858
 20
223.2586070520685
 30
0.0
 10
-135.8256829374747
 20
223.2566626794895
 30
0.0
 10
-135.9314761057468
 20
223.2525740634548
 30
0.0
 10
-137.046876756525
 20
223.2159553640068
 30
0.0
 10
-138.7699499982785
 20
223.1805076062961
 30
0.0
 10
-140.9588322453259
 20
223.1710939626629
 30
0.0
 10
-143.3448938500796
 20
223.2069921256524
 30
0.0
 10
-145.6529275805937
 20
223.2870276597623
 30
0.0
 10
-147.4302110644505
 20
223.3806224407227
 30
0.0
 10
-148.2218469043203
 20
223.4319525106141
 30
0.0
 10
-148.5311542244165
 20
223.4520081543316
 30
0.0
  0
LINE
  5
CC
330
1F
100
AcDbEntity
  8
0
  6
Continuous
 62
     7
370
    25
100
AcDbLine
 10
-135.7419366563
 20
232.1475145905
 30
0.0
 11
-149.7419366563
 21
232.1475145905
 31
0.0
  0
LINE
  5
CD
330
1F
100
AcDbEntity
  8
0
  6
Continuous
 62
     7
370
    25
100
AcDbLine
 10
-309.7419366563
 20
232.1475145905
 30
0.0
 11
-323.7419366563
 21
232.1475145905
 31
0.0
  0
LINE
  5
CE
330
1F
100
AcDbEntity
  8
0
  6
Continuous
 62
     1
370
    25
100
AcDbLine
 10
-242.2419366563
 20
224.1475145905
 30
0.0
 11
-242.2419366563
 21
-17.0524854095
 31
0.0
  0
LINE
  5
CF
330
1F
100
AcDbEntity
  8
0
  6
Continuous
 62
     1
370
    25
100
AcDbLine
 10
-217.2419366563
 20
224.1475145905
 30
0.0
 11
-217.2419366563
 21
-17.0524854095
 31
0.0
  0
LINE
  5
D0
330
1F
100
AcDbEntity
  8
0
  6
Continuous
 62
     7
370
    25
100
AcDbLine
 10
26.8427292145
 20
-204.4532802665
 30
0.0
 11
26.8427292145
 21
-229.4532802665
 31
0.0
  0
LINE
  5
D1
330
1F
100
AcDbEntity
  8
0
  6
Continuous
 62
     7
370
    25
100
AcDbLine
 10
268.0427292145
 20
-229.4532802665
 30
0.0
 11
268.0427292145
 21
-204.4532802665
 31
0.0
  0
ARC
  5
D2
330
1F
100
AcDbEntity
  8
0
  6
Continuous
 62
     7
370
    25
100
AcDbCircle
 10
-3473.5822707855
 20
-229.4532802665
 30
0.0
 40
3741.625000000016
100
AcDbArc
 50
358.6753011053
 51
0.0
  0
ARC
  5
D3
330
1F
100
AcDbEntity
  8
0
  6
Continuous
 62
     7
370
    25
100
AcDbCircle
 10
3768.4677292145
 20
-229.4532802665
 30
0.0
 40
3741.625000000016
100
AcDbArc
 50
180.0
 51
181.3246988947
  0
ARC
  5
D4
330
1F
100
AcDbEntity
  8
0
  6
Continuous
 62
     7
370
    25
100
AcDbCircle
 10
-3473.5822707855
 20
-204.4532802665
 30
0.0
 40
3741.625000000016
100
AcDbArc
 50
0.0
 51
1.3246988947
  0
ARC
  5
D5
330
1F
100
AcDbEntity
  8
0
  6
Continuous
 62
     7
370
    25
100
AcDbCircle
 10
3768.4677292145
 20
-204.4532802665
 30
0.0
 40
3741.625000000016
100
AcDbArc
 50
178.6753011053
 51
180.0
  0
CIRCLE
  5
D6
330
1F
100
AcDbEntity
  8
0
  6
Continuous
 62
     7
370
    25
100
AcDbCircle
 10
147.4427292145
 20
-129.9532802665
 30
0.0
 40
7.0
  0
CIRCLE
  5
D7
330
1F
100
AcDbEntity
  8
0
  6
Continuous
 62
     7
370
    25
100
AcDbCircle
 10
147.4427292145
 20
-129.9532802665
 30
0.0
 40
5.0
  0
CIRCLE
  5
D8
330
1F
100
AcDbEntity
  8
0
  6
Continuous
 62
     7
370
    25
100
AcDbCircle
 10
147.4427292145
 20
-303.9532802665
 30
0.0
 40
7.000000000000057
  0
CIRCLE
  5
D9
330
1F
100
AcDbEntity
  8
0
  6
Continuous
 62
     7
370
    25
100
AcDbCircle
 10
147.4427292145
 20
-303.9532802665
 30
0.0
 40
5.000000000000057
  0
LINE
  5
DA
330
1F
100
AcDbEntity
  8
0
  6
Continuous
 62
     7
370
    25
100
AcDbLine
 10
27.8427292145
 20
-315.9532802665
 30
0.0
 11
267.0427292145
 21
-315.9532802665
 31
0.0
  0
LINE
  5
DB
330
1F
100
AcDbEntity
  8
0
  6
Continuous
 62
     7
370
    25
100
AcDbLine
 10
27.8427292145
 20
-117.9532802665
 30
0.0
 11
267.0427292145
 21
-117.9532802665
 31
0.0
  0
LINE
  5
DC
330
1F
100
AcDbEntity
  8
0
  6
Continuous
 62
     1
370
    25
100
AcDbLine
 10
26.8427292145
 20
-229.4532802665
 30
0.0
 11
268.0427292145
 21
-229.4532802665
 31
0.0
  0
LINE
  5
DD
330
1F
100
AcDbEntity
  8
0
  6
Continuous
 62
     1
370
    25
100
AcDbLine
 10
26.8427292145
 20
-204.4532802665
 30
0.0
 11
268.0427292145
 21
-204.4532802665
 31
0.0
  0
INSERT
  5
E9
330
1F
100
AcDbEntity
  8
FORMAT
 62
     7
100
AcDbBlockReference
  2
SW_CENTERMARKSYMBOL_1
 10
147.4427292145
 20
-129.9532802665
 30
0.0
  0
INSERT
  5
F5
330
1F
100
AcDbEntity
  8
FORMAT
 62
     7
100
AcDbBlockReference
  2
SW_CENTERMARKSYMBOL_2
 10
147.4427292145
 20
-303.9532802665
 30
0.0
  0
SPLINE
  5
F6
330
1F
100
AcDbEntity
  8
0
  6
Continuous
 62
     7
370
    25
100
AcDbSpline
210
0.0
220
0.0
230
1.0
 70
     8
 71
     3
 72
    11
 73
     7
 74
     0
 42
0.00000001
 43
0.00000001
 40
0.0
 40
0.0
 40
0.0
 40
0.0
 40
0.2983572559465446
 40
0.6462083228338161
 40
0.9939868413026707
 40
1.0
 40
1.0
 40
1.0
 40
1.0
 10
407.2635329082885
 20
-131.0026419113759
 30
0.0
 10
401.086911351091
 20
-134.5800091692874
 30
0.0
 10
387.7090424449266
 20
-142.3281850551446
 30
0.0
 10
367.2979024493333
 20
-154.5258824802471
 30
0.0
 10
352.9275390127218
 20
-163.1990587209571
 30
0.0
 10
345.7441279869007
 20
-167.6697541568604
 30
0.0
 10
345.6220363909863
 20
-167.7457395541394
 30
0.0
  0
SPLINE
  5
F7
330
1F
100
AcDbEntity
  8
0
  6
Continuous
 62
     7
370
    25
100
AcDbSpline
210
0.0
220
0.0
230
1.0
 70
     8
 71
     3
 72
    11
 73
     7
 74
     0
 42
0.00000001
 43
0.00000001
 40
0.0
 40
0.0
 40
0.0
 40
0.0
 40
0.2545696954205287
 40
0.6025219214099002
 40
0.9504535884251377
 40
1.0
 40
1.0
 40
1.0
 40
1.0
 10
465.1828408434948
 20
-374.8543469120718
 30
0.0
 10
470.5391585942892
 20
-371.9586558957841
 30
0.0
 10
483.2166253978667
 20
-365.1050619828837
 30
0.0
 10
503.0701604935736
 20
-354.0218967851717
 30
0.0
 10
518.599055379368
 20
-345.2520003150637
 30
0.0
 10
526.8149839151566
 20
-340.4641856498733
 30
0.0
 10
527.8391153041072
 20
-339.8673752879355
 30
0.0
  0
LINE
  5
F8
330
1F
100
AcDbEntity
  8
0
  6
Continuous
 62
     7
370
    25
100
AcDbLine
 10
424.9338855725
 20
-120.7844193372
 30
0.0
 11
407.2562160428
 21
-130.989520735
 31
0.0
  0
LINE
  5
F9
330
1F
100
AcDbEntity
  8
0
  6
Continuous
 62
     7
370
    25
100
AcDbLine
 10
527.8464151987
 20
-339.8805063412
 30
0.0
 11
545.5240847284
 21
-329.6754049434
 31
0.0
  0
LINE
  5
FA
330
1F
100
AcDbEntity
  8
0
  6
Continuous
 62
     7
370
    25
100
AcDbLine
 10
421.8718604224
 20
-167.9835302532
 30
0.0
 11
421.8718604224
 21
-160.839067295
 31
0.0
  0
LINE
  5
FB
330
1F
100
AcDbEntity
  8
0
  6
Continuous
 62
     7
370
    25
100
AcDbLine
 10
407.8718604224
 20
-160.839067295
 30
0.0
 11
407.8718604224
 21
-168.1432264304
 31
0.0
  0
SPLINE
  5
FC
330
1F
100
AcDbEntity
  8
0
  6
Continuous
 62
     7
370
    25
100
AcDbSpline
210
0.0
220
0.0
230
1.0
 70
     8
 71
     3
 72
    11
 73
     7
 74
     0
 42
0.00000001
 43
0.00000001
 40
0.0
 40
0.0
 40
0.0
 40
0.0
 40
0.254572885677306
 40
0.6025237502224796
 40
0.9504540558742087
 40
1.0
 40
1.0
 40
1.0
 40
1.0
 10
487.5977239085083
 20
-85.81043540361665
 30
0.0
 10
482.2413180253732
 20
-88.70617394678901
 30
0.0
 10
469.5637630224761
 20
-95.55981526076465
 30
0.0
 10
449.7101402231001
 20
-106.643028789268
 30
0.0
 10
434.1812510684711
 20
-115.4129221054382
 30
0.0
 10
425.9653281735671
 20
-120.2007334502566
 30
0.0
 10
424.9412024379526
 20
-120.7975405135918
 30
0.0
  0
SPLINE
  5
FD
330
1F
100
AcDbEntity
  8
0
  6
Continuous
 62
     7
370
    25
100
AcDbSpline
210
0.0
220
0.0
230
1.0
 70
     8
 71
     3
 72
    11
 73
     7
 74
     0
 42
0.00000001
 43
0.00000001
 40
0.0
 40
0.0
 40
0.0
 40
0.0
 40
0.2983577394361741
 40
0.6462096889994686
 40
0.9939890899608278
 40
0.9999999999999999
 40
0.9999999999999999
 40
0.9999999999999999
 40
0.9999999999999999
 10
545.5167848337702
 20
-329.6622738901525
 30
0.0
 10
551.693400731348
 20
-326.0849099190523
 30
0.0
 10
565.0712639829791
 20
-318.3367373274139
 30
0.0
 10
585.4823981983072
 20
-306.1390430053581
 30
0.0
 10
599.8527156520041
 20
-297.4658953477223
 30
0.0
 10
607.0360808421423
 20
-292.9952287234148
 30
0.0
 10
607.1581264736756
 20
-292.9192719375496
 30
0.0
  0
LINE
  5
FE
330
1F
100
AcDbEntity
  8
0
  6
Continuous
 62
     7
370
    25
100
AcDbLine
 10
544.9084403488
 20
-97.1150312368
 30
0.0
 11
544.9084403488
 21
-89.8115615664
 31
0.0
  0
LINE
  5
FF
330
1F
100
AcDbEntity
  8
0
  6
Continuous
 62
     7
370
    25
100
AcDbLine
 10
530.9084403488
 20
-89.8115615664
 30
0.0
 11
530.9084403488
 21
-96.9552105991
 31
0.0
  0
LWPOLYLINE
  5
100
330
1F
100
AcDbEntity
  8
0
  6
Continuous
 62
     7
370
    25
100
AcDbPolyline
 90
      132
 70
   128
 43
0.0
 10
321.8166080182
 20
-221.9234592875
 10
321.91386484
 20
-217.2973919338
 10
322.2054116113
 20
-212.7942550196
 10
322.6905777654
 20
-208.4244059038
 10
323.3682474045
 20
-204.1978953797
 10
324.2368618668
 20
-200.1244445568
 10
325.2944233111
 20
-196.2134225024
 10
326.5384993122
 20
-192.4738246928
 10
327.9662284555
 20
-188.9142523227
 10
329.5743269182
 20
-185.5428925226
 10
331.3590960222
 20
-182.3674995281
 10
333.3164307415
 20
-179.3953768448
 10
335.4418291435
 20
-176.6333604501
 10
337.7304027437
 20
-174.0878030704
 10
340.1768877495
 20
-171.764559569
 10
342.7756571671
 20
-169.6689734805
 10
345.5207337434
 20
-167.8058647202
 10
348.4058037143
 20
-166.1795184977
 10
351.4242313266
 20
-164.7936754616
 10
354.5690740999
 20
-163.6515230952
 10
357.8330987951
 20
-162.7556883856
 10
361.2087980508
 20
-162.1082317814
 10
364.6884076505
 20
-161.7106424534
 10
368.2639243807
 20
-161.5638348699
 10
371.9271244383
 20
-161.668146693
 10
375.6695823457
 20
-162.0233380022
 10
379.48269033
 20
-162.628591846
 10
383.3576781204
 20
-163.4825161213
 10
387.2856331209
 20
-164.5831467748
 10
391.2575209091
 20
-165.9279523208
 10
395.2642060159
 20
-167.5138396634
 10
399.2964729371
 20
-169.337161211
 10
403.3450473295
 20
-171.3937232654
 10
407.4006173424
 20
-173.6787956682
 10
411.4538550346
 20
-176.1871226795
 10
415.4954378298
 20
-178.9129350668
 10
419.5160699578
 20
-181.8499633743
 10
423.506503836
 20
-184.9914523428
 10
427.4575613386
 20
-188.330176447
 10
431.3601549067
 20
-191.8584565144
 10
435.20530845
 20
-195.5681773878
 10
438.9841779922
 20
-199.4508065904
 10
442.6880720122
 20
-203.4974139505
 10
446.3084714351
 20
-207.6986921416
 10
449.8370492261
 20
-212.0449780891
 10
453.2656895434
 20
-216.5262751961
 10
456.5865064043
 20
-221.1322763357
 10
459.7918618236
 20
-225.8523875577
 10
462.8743833811
 20
-230.6757524549
 10
465.8269811785
 20
-235.5912771336
 10
468.6428641462
 20
-240.5876557294
 10
471.3155556631
 20
-245.6533964115
 10
473.8389084531
 20
-250.7768478139
 10
476.207118724
 20
-255.9462258344
 10
478.4147395161
 20
-261.1496407377
 10
480.4566932311
 20
-266.3751245028
 10
482.3282833098
 20
-271.6106583497
 10
484.0252050351
 20
-276.8442003826
 10
485.5435554326
 20
-282.0637132873
 10
486.8798422479
 20
-287.2571920168
 10
488.0309919784
 20
-292.4126914036
 10
488.9943569428
 20
-297.5183536338
 10
489.7677213708
 20
-302.5624355207
 10
490.3493064995
 20
-307.5333355144
 10
490.7377746644
 20
-312.4196203856
 10
490.9322323764
 20
-317.2100515224
 10
490.9322323764
 20
-321.8936107798
 10
490.7377746644
 20
-326.4595258214
 10
490.3493064995
 20
-330.8972948962
 10
489.7677213708
 20
-335.1967109932
 10
488.9943569428
 20
-339.3478853176
 10
488.0309919784
 20
-343.3412700355
 10
486.8798422479
 20
-347.1676802339
 10
485.5435554326
 20
-350.8183150468
 10
484.0252050351
 20
-354.2847778972
 10
482.3282833098
 20
-357.5590958094
 10
480.4566932311
 20
-360.6337377472
 10
478.4147395161
 20
-363.5016319358
 10
476.207118724
 20
-366.1561821266
 10
473.8389084531
 20
-368.591282769
 10
471.3155556631
 20
-370.8013330536
 10
468.6428641462
 20
-372.7812497939
 10
465.8269811785
 20
-374.5264791179
 10
462.8743833811
 20
-376.0330069422
 10
459.7918618236
 20
-377.2973682047
 10
456.5865064043
 20
-378.3166548338
 10
453.2656895434
 20
-379.0885224376
 10
449.8370492261
 20
-379.611195696
 10
446.3084714351
 20
-379.8834724437
 10
442.6880720122
 20
-379.9047264354
 10
438.9841779922
 20
-379.6749087862
 10
435.20530845
 20
-379.1945480843
 10
431.3601549067
 20
-378.4647491744
 10
427.4575613386
 20
-377.4871906176
 10
423.506503836
 20
-376.2641208298
 10
419.5160699578
 20
-374.7983529107
 10
415.4954378298
 20
-373.0932581736
 10
411.4538550346
 20
-371.1527583909
 10
407.4006173424
 20
-368.9813167744
 10
403.3450473295
 20
-366.5839277093
 10
399.2964729371
 20
-363.9661052673
 10
395.2642060159
 20
-361.133870524
 10
391.2575209091
 20
-358.0937377099
 10
387.2856331209
 20
-354.852699228
 10
383.3576781204
 20
-351.4182095707
 10
379.48269033
 20
-347.7981681742
 10
375.6695823457
 20
-344.0009012498
 10
371.9271244383
 20
-340.035142633
 10
368.2639243807
 20
-335.9100136958
 10
364.6884076505
 20
-331.6350023669
 10
361.2087980508
 20
-327.2199413094
 10
357.8330987951
 20
-322.6749853051
 10
354.5690740999
 20
-318.0105878986
 10
351.4242313266
 20
-313.2374773533
 10
348.4058037143
 20
-308.3666319764
 10
345.5207337434
 20
-303.4092548684
 10
342.7756571671
 20
-298.3767481556
 10
340.1768877495
 20
-293.2806867646
 10
337.7304027437
 20
-288.1327917999
 10
335.4418291435
 20
-282.9449035849
 10
333.3164307415
 20
-277.7289544288
 10
331.3590960222
 20
-272.4969411817
 10
329.5743269182
 20
-267.2608976418
 10
327.9662284555
 20
-262.0328668771
 10
326.5384993122
 20
-256.8248735257
 10
325.2944233111
 20
-251.6488961394
 10
324.2368618668
 20
-246.516839632
 10
323.3682474045
 20
-241.4405078978
 10
322.6905777654
 20
-236.4315766626
 10
322.2054116113
 20
-231.5015666288
 10
321.91386484
 20
-226.6618169773
 10
321.8166080182
 20
-221.9234592875
  0
SPLINE
  5
101
330
1F
100
AcDbEntity
  8
0
  6
Continuous
 62
     7
370
    25
100
AcDbSpline
210
0.0
220
0.0
230
1.0
 70
     8
 71
     3
 72
    12
 73
     8
 74
     0
 42
0.00000001
 43
0.00000001
 40
0.0
 40
0.0
 40
0.0
 40
0.0
 40
0.2451053648463747
 40
0.4902152953945496
 40
0.7352222224831797
 40
0.9802823077853644
 40
1.0
 40
1.0
 40
1.0
 40
1.0
 10
413.5187870654327
 20
-172.0919618205212
 30
0.0
 10
412.7628484503863
 20
-171.951059326882
 30
0.0
 10
411.2509571390423
 20
-171.6692517149415
 30
0.0
 10
409.4112429194848
 20
-170.7455434526994
 30
0.0
 10
408.2590448047935
 20
-169.5825264204461
 30
0.0
 10
407.7626971603936
 20
-168.6570424418439
 30
0.0
 10
407.8915172716494
 20
-168.1810744256815
 30
0.0
 10
407.9011103550593
 20
-168.1456296427592
 30
0.0
  0
SPLINE
  5
102
330
1F
100
AcDbEntity
  8
0
  6
Continuous
 62
     7
370
    25
100
AcDbSpline
210
0.0
220
0.0
230
1.0
 70
     8
 71
     3
 72
    13
 73
     9
 74
     0
 42
0.00000001
 43
0.00000001
 40
0.0
 40
0.0
 40
0.0
 40
0.0
 40
0.1144116619312339
 40
0.3056976928267639
 40
0.4968702405366237
 40
0.6876830483901081
 40
0.8783821635821858
 40
1.0
 40
1.0
 40
1.0
 40
1.0
 10
421.7766720992668
 20
-167.9816994867513
 30
0.0
 10
421.7864275806005
 20
-168.2705011394928
 30
0.0
 10
421.8124933512202
 20
-169.042153237167
 30
0.0
 10
420.9716606222788
 20
-170.2268701317594
 30
0.0
 10
419.4396867377098
 20
-171.3268241002538
 30
0.0
 10
417.3629494764518
 20
-172.0235802102364
 30
0.0
 10
415.2899068242729
 20
-172.2489550605051
 30
0.0
 10
414.0151744467855
 20
-172.1359619299981
 30
0.0
 10
413.5187870654327
 20
-172.0919618205212
 30
0.0
  0
LWPOLYLINE
  5
103
330
1F
100
AcDbEntity
  8
0
  6
Continuous
 62
     7
370
    25
100
AcDbPolyline
 90
      121
 70
   128
 43
0.0
 10
335.2516368608
 20
-229.6793363498
 10
335.3491248268
 20
-225.436529868
 10
335.6413215171
 20
-221.3179098335
 10
336.1274260408
 20
-217.3347650976
 10
336.8061060192
 20
-213.4980131832
 10
337.6755012378
 20
-209.8181703605
 10
338.7332287446
 20
-206.305322823
 10
339.976389382
 20
-202.9690990415
 10
341.4015757332
 20
-199.8186433736
 10
343.0048814614
 20
-196.8625909992
 10
344.7819120171
 20
-194.1090442525
 10
346.7277966831
 20
-191.5655504136
 10
348.8372019247
 20
-189.2390810225
 10
351.1043460088
 20
-187.1360127699
 10
353.523014851
 20
-185.2621100198
 10
356.0865790481
 20
-183.6225090094
 10
358.788012049
 20
-182.2217037711
 10
361.6199094135
 20
-181.0635338146
 10
364.5745091077
 20
-180.1511736033
 10
367.6437127794
 20
-179.4871238532
 10
370.8191079545
 20
-179.0732046783
 10
374.0919910956
 20
-178.9105506025
 10
377.4533914575
 20
-178.9996074493
 10
380.8940956754
 20
-179.3401311199
 10
384.4046730184
 20
-179.9311882628
 10
387.9755012378
 20
-180.7711588313
 10
391.5967929417
 20
-181.8577405245
 10
395.2586224214
 20
-183.1879550975
 10
398.9509528567
 20
-184.7581565247
 10
402.6636638265
 20
-186.564040993
 10
406.3865790481
 20
-188.6006586987
 10
410.1094942698
 20
-190.8624274142
 10
413.8222052396
 20
-193.3431477887
 10
417.5145356749
 20
-196.03602034
 10
421.1763651545
 20
-198.9336640917
 10
424.7976568585
 20
-202.0281368036
 10
428.3684850779
 20
-205.3109567412
 10
431.8790624209
 20
-208.7731259231
 10
435.3197666388
 20
-212.4051547844
 10
438.6811670007
 20
-216.1970881863
 10
441.9540501418
 20
-220.138532703
 10
445.1294453169
 20
-224.218685109
 10
448.1986489886
 20
-228.4263619902
 10
451.1532486828
 20
-232.7500303968
 10
453.9851460473
 20
-237.177839454
 10
456.6865790481
 20
-241.6976528452
 10
459.2501432453
 20
-246.297082076
 10
461.6688120875
 20
-250.9635204305
 10
463.9359561716
 20
-255.6841775256
 10
466.0453614132
 20
-260.4461143683
 10
467.9912460791
 20
-265.2362788207
 10
469.7682766349
 20
-270.0415413751
 10
471.3715823631
 20
-274.8487311407
 10
472.7967687143
 20
-279.6446719445
 10
474.0399293517
 20
-284.4162184463
 10
475.0976568585
 20
-289.1502921686
 10
475.9670520771
 20
-293.8339173446
 10
476.6457320555
 20
-298.454256483
 10
477.1318365792
 20
-302.9986455555
 10
477.4240332695
 20
-307.4546287076
 10
477.5215212355
 20
-311.8099923991
 10
477.4240332695
 20
-316.0527988809
 10
477.1318365792
 20
-320.1714189154
 10
476.6457320555
 20
-324.1545636513
 10
475.9670520771
 20
-327.9913155657
 10
475.0976568585
 20
-331.6711583884
 10
474.0399293517
 20
-335.1840059259
 10
472.7967687143
 20
-338.5202297074
 10
471.3715823631
 20
-341.6706853753
 10
469.7682766349
 20
-344.6267377497
 10
467.9912460791
 20
-347.3802844964
 10
466.0453614132
 20
-349.9237783353
 10
463.9359561716
 20
-352.2502477264
 10
461.6688120875
 20
-354.353315979
 10
459.2501432453
 20
-356.2272187291
 10
456.6865790481
 20
-357.8668197395
 10
453.9851460473
 20
-359.2676249778
 10
451.1532486828
 20
-360.4257949343
 10
448.1986489886
 20
-361.3381551456
 10
445.1294453169
 20
-362.0022048957
 10
441.9540501418
 20
-362.4161240706
 10
438.6811670007
 20
-362.5787781464
 10
435.3197666388
 20
-362.4897212996
 10
431.8790624209
 20
-362.149197629
 10
428.3684850779
 20
-361.5581404861
 10
424.7976568585
 20
-360.7181699176
 10
421.1763651545
 20
-359.6315882244
 10
417.5145356749
 20
-358.3013736514
 10
413.8222052396
 20
-356.7311722242
 10
410.1094942698
 20
-354.9252877559
 10
406.3865790481
 20
-352.8886700502
 10
402.6636638265
 20
-350.6269013347
 10
398.9509528567
 20
-348.1461809602
 10
395.2586224214
 20
-345.4533084089
 10
391.5967929417
 20
-342.5556646572
 10
387.9755012378
 20
-339.4611919453
 10
384.4046730184
 20
-336.1783720077
 10
380.8940956754
 20
-332.7162028258
 10
377.4533914575
 20
-329.0841739645
 10
374.0919910956
 20
-325.2922405626
 10
370.8191079545
 20
-321.3507960459
 10
367.6437127794
 20
-317.2706436399
 10
364.5745091077
 20
-313.0629667587
 10
361.6199094135
 20
-308.7392983521
 10
358.788012049
 20
-304.3114892949
 10
356.0865790481
 20
-299.7916759037
 10
353.523014851
 20
-295.1922466729
 10
351.1043460088
 20
-290.5258083184
 10
348.8372019247
 20
-285.8051512233
 10
346.7277966831
 20
-281.0432143806
 10
344.7819120171
 20
-276.2530499282
 10
343.0048814614
 20
-271.4477873738
 10
341.4015757332
 20
-266.6405976082
 10
339.976389382
 20
-261.8446568044
 10
338.7332287446
 20
-257.0731103026
 10
337.6755012378
 20
-252.3390365803
 10
336.8061060192
 20
-247.6554114043
 10
336.1274260408
 20
-243.0350722659
 10
335.6413215171
 20
-238.4906831934
 10
335.3491248268
 20
-234.0347000413
 10
335.2516368608
 20
-229.6793363498
  0
LWPOLYLINE
  5
104
330
1F
100
AcDbEntity
  8
0
  6
Continuous
 62
     7
370
    25
100
AcDbPolyline
 90
       32
 70
   128
 43
0.0
 10
419.8216078907
 20
-157.9816389036
 10
420.7166631094
 20
-158.6153267371
 10
421.3724314194
 20
-159.3400547703
 10
421.762065589
 20
-160.1261525524
 10
421.8696139495
 20
-160.9414371478
 10
421.6906734584
 20
-161.7525307094
 10
421.2325699604
 20
-162.5262269715
 10
420.5140582666
 20
-163.2308507182
 10
419.5645543301
 20
-163.8375545706
 10
418.4229309536
 20
-164.3215000015
 10
417.1359263324
 20
-164.6628742283
 10
415.7562305868
 20
-164.84770135
 10
414.3403286228
 20
-164.8684145225
 10
412.9461876331
 20
-164.724165746
 10
411.6308839136
 20
-164.4208605825
 10
410.4482661533
 20
-163.9709163809
 10
409.446750862
 20
-163.3927539098
 10
408.6673401936
 20
-162.7100432087
 10
408.1419433123
 20
-161.9507345338
 10
407.8920700282
 20
-161.1459140715
 10
407.927950183
 20
-160.3285312661
 10
408.2481148389
 20
-159.5320498658
 10
408.8394564172
 20
-158.7890779126
 10
409.6777653242
 20
-158.1300327655
 10
410.7287210949
 20
-157.5818958104
 10
411.9492974764
 20
-157.1671078386
 10
413.2895239283
 20
-156.9026503183
 10
414.6945314222
 20
-156.7993501716
 10
416.1067987862
 20
-156.8614365186
 10
417.4685076285
 20
-157.0863675369
 10
418.723909429
 20
-157.4649345242
 10
419.8216078907
 20
-157.9816389036
  0
LWPOLYLINE
  5
105
330
1F
100
AcDbEntity
  8
0
  6
Continuous
 62
     7
370
    25
100
AcDbPolyline
 90
       27
 70
   128
 43
0.0
 10
418.4073943283
 20
-158.7980470155
 10
419.1507667839
 20
-159.3458034794
 10
419.6454647549
 20
-159.9803430085
 10
419.8627381935
 20
-160.6647884718
 10
419.7899599571
 20
-161.3593623869
 10
419.4313596523
 20
-162.0236986424
 10
418.8077778254
 20
-162.6191884299
 10
417.9554547855
 20
-163.1112240476
 10
416.9239244496
 20
-163.4712101737
 10
415.7731356115
 20
-163.6782257232
 10
414.5699679353
 20
-163.7202397048
 10
413.3843451531
 20
-163.5948104185
 10
412.2851713515
 20
-163.3092273587
 10
411.3363265165
 20
-162.8800875746
 10
410.5929540609
 20
-162.3323311106
 10
410.0982560898
 20
-161.6977915815
 10
409.8809826513
 20
-161.0133461182
 10
409.9537608876
 20
-160.3187722032
 10
410.3123611924
 20
-159.6544359477
 10
410.9359430193
 20
-159.0589461601
 10
411.7882660592
 20
-158.5669105424
 10
412.8197963951
 20
-158.2069244163
 10
413.9705852333
 20
-157.9999088668
 10
415.1737529095
 20
-157.9578948852
 10
416.3593756917
 20
-158.0833241715
 10
417.4585494933
 20
-158.3689072313
 10
418.4073943283
 20
-158.7980470155
  0
LWPOLYLINE
  5
106
330
1F
100
AcDbEntity
  8
0
  6
Continuous
 62
     7
370
    25
100
AcDbPolyline
 90
       15
 70
   128
 43
0.0
 10
487.5841414043
 20
-85.7903163879
 10
488.4129463893
 20
-85.3551154272
 10
491.4313740015
 20
-83.9692723911
 10
494.5762167748
 20
-82.8271200248
 10
497.84024147
 20
-81.9312853152
 10
501.2159407257
 20
-81.283828711
 10
504.6955503255
 20
-80.886239383
 10
508.2710670557
 20
-80.7394317995
 10
511.9342671132
 20
-80.8437436225
 10
515.6767250207
 20
-81.1989349317
 10
519.4898330049
 20
-81.8041887755
 10
523.3648207953
 20
-82.6581130508
 10
527.2927757958
 20
-83.7587437044
 10
531.264663584
 20
-85.1035492504
 10
534.3859712097
 20
-86.3194618204
  0
LWPOLYLINE
  5
107
330
1F
100
AcDbEntity
  8
0
  6
Continuous
 62
     7
370
    25
100
AcDbPolyline
 90
       51
 70
   128
 43
0.0
 10
544.9084403488
 20
-91.4196080376
 10
547.4077600173
 20
-92.8543925977
 10
551.4609977096
 20
-95.362719609
 10
555.5025805047
 20
-98.0885319964
 10
559.5232126327
 20
-101.0255603039
 10
563.5136465109
 20
-104.1670492724
 10
567.4647040135
 20
-107.5057733766
 10
571.3672975816
 20
-111.034053444
 10
575.2124511249
 20
-114.7437743174
 10
578.9913206671
 20
-118.62640352
 10
582.6952146871
 20
-122.6730108801
 10
586.31561411
 20
-126.8742890711
 10
589.8441919011
 20
-131.2205750187
 10
593.2728322184
 20
-135.7018721257
 10
596.5936490793
 20
-140.3078732653
 10
599.7990044986
 20
-145.0279844872
 10
602.8815260561
 20
-149.8513493845
 10
605.8341238534
 20
-154.7668740631
 10
608.6500068211
 20
-159.7632526589
 10
611.322698338
 20
-164.828993341
 10
613.8460511281
 20
-169.9524447435
 10
616.2142613989
 20
-175.1218227639
 10
618.4218821911
 20
-180.3252376672
 10
620.463835906
 20
-185.5507214324
 10
622.3354259847
 20
-190.7862552792
 10
624.03234771
 20
-196.0197973122
 10
625.5506981076
 20
-201.2393102169
 10
626.8869849228
 20
-206.4327889464
 10
628.0381346533
 20
-211.5882883331
 10
629.0014996177
 20
-216.6939505633
 10
629.7748640457
 20
-221.7380324503
 10
630.3564491744
 20
-226.708932444
 10
630.7449173394
 20
-231.5952173151
 10
630.9393750513
 20
-236.385648452
 10
630.9393750513
 20
-241.0692077094
 10
630.7449173394
 20
-245.6351227509
 10
630.3564491744
 20
-250.0728918258
 10
629.7748640457
 20
-254.3723079228
 10
629.0014996177
 20
-258.5234822472
 10
628.0381346533
 20
-262.516866965
 10
626.8869849228
 20
-266.3432771634
 10
625.5506981076
 20
-269.9939119763
 10
624.03234771
 20
-273.4603748267
 10
622.3354259847
 20
-276.7346927389
 10
620.463835906
 20
-279.8093346768
 10
618.4218821911
 20
-282.6772288654
 10
616.2142613989
 20
-285.3317790562
 10
613.8460511281
 20
-287.7668796986
 10
611.322698338
 20
-289.9769299832
 10
608.6500068211
 20
-291.9568467235
 10
607.1586954237
 20
-292.921371997
  0
SPLINE
  5
108
330
1F
100
AcDbEntity
  8
0
  6
Continuous
 62
     7
370
    25
100
AcDbSpline
210
0.0
220
0.0
230
1.0
 70
     8
 71
     3
 72
    12
 73
     8
 74
     0
 42
0.00000001
 43
0.00000001
 40
0.0
 40
0.0
 40
0.0
 40
0.0
 40
0.2436976246587043
 40
0.4874122364663162
 40
0.730768869433916
 40
0.9742756715890494
 40
1.0
 40
1.0
 40
1.0
 40
1.0
 10
536.5973765658997
 20
-100.8813006236057
 30
0.0
 10
535.8411200936854
 20
-100.7310596472527
 30
0.0
 10
534.3285544337599
 20
-100.4305672218725
 30
0.0
 10
532.481280295515
 20
-99.50861996042632
 30
0.0
 10
531.3133207898923
 20
-98.37176523274039
 30
0.0
 10
530.8066717010191
 20
-97.46606620804776
 30
0.0
 10
530.9335832687492
 20
-97.0023887354885
 30
0.0
 10
530.9457093361939
 20
-96.95808556907606
 30
0.0
  0
SPLINE
  5
109
330
1F
100
AcDbEntity
  8
0
  6
Continuous
 62
     7
370
    25
100
AcDbSpline
210
0.0
220
0.0
230
1.0
 70
     8
 71
     3
 72
    13
 73
     9
 74
     0
 42
0.00000001
 43
0.00000001
 40
0.0
 40
0.0
 40
0.0
 40
0.0
 40
0.111084287893271
 40
0.3027080311657211
 40
0.4941346878092813
 40
0.6854872896443613
 40
0.8771138461943475
 40
1.0
 40
1.0
 40
1.0
 40
1.0
 10
544.8116337782473
 20
-97.11353528050334
 30
0.0
 10
544.8236315029003
 20
-97.38287125704332
 30
0.0
 10
544.8563256640373
 20
-98.1168199074488
 30
0.0
 10
544.0314620458744
 20
-99.232015444466
 30
0.0
 10
542.514960582155
 20
-100.2602389480069
 30
0.0
 10
540.4489480577869
 20
-100.8905305022211
 30
0.0
 10
538.3769599528417
 20
-101.0679748682949
 30
0.0
 10
537.0973462176661
 20
-100.9337463015075
 30
0.0
 10
536.5973765658997
 20
-100.8813006236057
 30
0.0
  0
LWPOLYLINE
  5
10A
330
1F
100
AcDbEntity
  8
0
  6
Continuous
 62
     7
370
    25
100
AcDbPolyline
 90
       32
 70
   128
 43
0.0
 10
532.9586928805
 20
-92.6689899578
 10
532.0636376618
 20
-92.0353021243
 10
531.4078693518
 20
-91.3105740911
 10
531.0182351823
 20
-90.524476309
 10
530.9106868218
 20
-89.7091917136
 10
531.0896273129
 20
-88.898098152
 10
531.5477308109
 20
-88.1244018899
 10
532.2662425047
 20
-87.4197781432
 10
533.2157464411
 20
-86.8130742909
 10
534.3573698176
 20
-86.3291288599
 10
535.6443744388
 20
-85.9877546331
 10
537.0240701844
 20
-85.8029275114
 10
538.4399721484
 20
-85.782214339
 10
539.8341131381
 20
-85.9264631154
 10
541.1494168576
 20
-86.2297682789
 10
542.332034618
 20
-86.6797124805
 10
543.3335499092
 20
-87.2578749516
 10
544.1129605777
 20
-87.9405856528
 10
544.6383574589
 20
-88.6998943277
 10
544.888230743
 20
-89.50471479
 10
544.8523505882
 20
-90.3220975953
 10
544.5321859323
 20
-91.1185789957
 10
543.940844354
 20
-91.8615509489
 10
543.102535447
 20
-92.5205960959
 10
542.0515796764
 20
-93.068733051
 10
540.8310032948
 20
-93.4835210229
 10
539.4907768429
 20
-93.7479785431
 10
538.085769349
 20
-93.8512786898
 10
536.673501985
 20
-93.7891923428
 10
535.3117931428
 20
-93.5642613245
 10
534.0563913422
 20
-93.1856943372
 10
532.9586928805
 20
-92.6689899578
  0
LWPOLYLINE
  5
10B
330
1F
100
AcDbEntity
  8
0
  6
Continuous
 62
     7
370
    25
100
AcDbPolyline
 90
       27
 70
   128
 43
0.0
 10
534.3729064429
 20
-91.852581846
 10
533.6295339873
 20
-91.304825382
 10
533.1348360163
 20
-90.6702858529
 10
532.9175625777
 20
-89.9858403896
 10
532.9903408141
 20
-89.2912664746
 10
533.3489411189
 20
-88.6269302191
 10
533.9725229458
 20
-88.0314404315
 10
534.8248459857
 20
-87.5394048139
 10
535.8563763216
 20
-87.1794186877
 10
537.0071651598
 20
-86.9724031382
 10
538.210332836
 20
-86.9303891566
 10
539.3959556181
 20
-87.0558184429
 10
540.4951294197
 20
-87.3414015028
 10
541.4439742548
 20
-87.7705412869
 10
542.1873467104
 20
-88.3182977508
 10
542.6820446814
 20
-88.9528372799
 10
542.89931812
 20
-89.6372827433
 10
542.8265398836
 20
-90.3318566583
 10
542.4679395788
 20
-90.9961929138
 10
541.8443577519
 20
-91.5916827013
 10
540.992034712
 20
-92.083718319
 10
539.9605043761
 20
-92.4437044452
 10
538.8097155379
 20
-92.6507199946
 10
537.6065478617
 20
-92.6927339762
 10
536.4209250796
 20
-92.56730469
 10
535.321751278
 20
-92.2817216301
 10
534.3729064429
 20
-91.852581846
  0
LWPOLYLINE
  5
10C
330
1F
100
AcDbEntity
  8
0
  6
Continuous
 62
     1
370
    25
100
AcDbPolyline
 90
       68
 70
   128
 43
0.0
 10
407.2560139512
 20
-130.9896374008
 10
408.7033940628
 20
-130.1932510259
 10
411.7067058567
 20
-128.7743017894
 10
414.8365236532
 20
-127.5969733708
 10
418.0857574084
 20
-126.6639327976
 10
421.4470465628
 20
-125.9772937067
 10
424.9127767152
 20
-125.5386115565
 10
428.4750968723
 20
-125.3488801032
 10
432.1259372331
 20
-125.4085291497
 10
435.85702747
 20
-125.7174235715
 10
439.6599154634
 20
-126.2748636235
 10
443.5259864491
 20
-127.0795865246
 10
447.4464825327
 20
-128.1297693188
 10
451.4125225296
 20
-129.4230330041
 10
455.4151220837
 20
-130.9564479223
 10
459.4452140195
 20
-132.7265403956
 10
463.4936688827
 20
-134.729300595
 10
467.5513156208
 20
-136.9601916247
 10
471.6089623589
 20
-139.4141597988
 10
475.657417222
 20
-142.0856460903
 10
479.6875091579
 20
-144.9685987233
 10
483.690108712
 20
-148.0564868829
 10
487.6561487089
 20
-151.3423155093
 10
491.5766447925
 20
-154.8186411439
 10
495.4427157781
 20
-158.4775887908
 10
499.2456037716
 20
-162.310869757
 10
502.9766940084
 20
-166.309800428
 10
506.6275343692
 20
-170.4653219397
 10
510.1898545263
 20
-174.7680206994
 10
513.6555846788
 20
-179.2081497104
 10
517.0168738331
 20
-183.7756506525
 10
520.2661075883
 20
-188.4601766669
 10
523.3959253849
 20
-193.2511157955
 10
526.3992371787
 20
-198.1376150202
 10
529.2692395028
 20
-203.1086048488
 10
531.9994308787
 20
-208.1528243902
 10
534.5836265448
 20
-213.258846865
 10
537.0159724668
 20
-218.4151054899
 10
539.2909585989
 20
-223.6099196807
 10
541.4034313657
 20
-228.8315215125
 10
543.348605337
 20
-234.0680823776
 10
545.1220740681
 20
-239.3077397814
 10
546.7198200819
 20
-244.5386242147
 10
548.1382239699
 20
-249.7488860417
 10
549.3740725909
 20
-254.9267223438
 10
550.4245663504
 20
-260.0604036561
 10
551.2873255422
 20
-265.1383005395
 10
551.9603957392
 20
-270.1489099243
 10
552.4422522208
 20
-275.0808811686
 10
552.7318034273
 20
-279.9230417712
 10
552.8283934319
 20
-284.664422681
 10
552.7318034273
 20
-289.2942831453
 10
552.4422522208
 20
-293.8021350409
 10
551.9603957392
 20
-298.1777666335
 10
551.2873255422
 20
-302.4112657101
 10
550.4245663504
 20
-306.4930420337
 10
549.3740725909
 20
-310.4138490681
 10
548.1382239699
 20
-314.1648049243
 10
546.7198200819
 20
-317.7374124808
 10
545.1220740681
 20
-321.1235786324
 10
543.348605337
 20
-324.3156326238
 10
541.4034313657
 20
-327.3063434259
 10
539.2909585989
 20
-330.0889361169
 10
537.0159724668
 20
-332.6571072293
 10
534.5836265448
 20
-335.0050390295
 10
531.9994308787
 20
-337.1274126969
 10
529.2692395028
 20
-339.0194203725
 10
527.8466103144
 20
-339.8803937026
  0
LWPOLYLINE
  5
10D
330
1F
100
AcDbEntity
  8
0
  6
Continuous
 62
     1
370
    25
100
AcDbPolyline
 90
       68
 70
   128
 43
0.0
 10
424.9338855725
 20
-120.7844193372
 10
426.3810635925
 20
-119.9881496281
 10
429.3843753864
 20
-118.5692003916
 10
432.5141931829
 20
-117.391871973
 10
435.7634269381
 20
-116.4588313998
 10
439.1247160924
 20
-115.7721923089
 10
442.5904462449
 20
-115.3335101587
 10
446.152766402
 20
-115.1437787055
 10
449.8036067628
 20
-115.2034277519
 10
453.5346969996
 20
-115.5123221737
 10
457.3375849931
 20
-116.0697622257
 10
461.2036559788
 20
-116.8744851268
 10
465.1241520623
 20
-117.924667921
 10
469.0901920593
 20
-119.2179316063
 10
473.0927916133
 20
-120.7513465246
 10
477.1228835492
 20
-122.5214389978
 10
481.1713384123
 20
-124.5241991973
 10
485.2289851504
 20
-126.7550902269
 10
489.2866318885
 20
-129.209058401
 10
493.3350867517
 20
-131.8805446925
 10
497.3651786875
 20
-134.7634973255
 10
501.3677782416
 20
-137.8513854851
 10
505.3338182385
 20
-141.1372141116
 10
509.2543143221
 20
-144.6135397461
 10
513.1203853078
 20
-148.2724873931
 10
516.9232733013
 20
-152.1057683592
 10
520.6543635381
 20
-156.1046990302
 10
524.3052038989
 20
-160.260220542
 10
527.867524056
 20
-164.5629193016
 10
531.3332542085
 20
-169.0030483126
 10
534.6945433628
 20
-173.5705492547
 10
537.943777118
 20
-178.2550752691
 10
541.0735949145
 20
-183.0460143977
 10
544.0769067084
 20
-187.9325136224
 10
546.9469090325
 20
-192.903503451
 10
549.6771004084
 20
-197.9477229924
 10
552.2612960745
 20
-203.0537454672
 10
554.6936419965
 20
-208.2100040921
 10
556.9686281286
 20
-213.4048182829
 10
559.0811008954
 20
-218.6264201147
 10
561.0262748667
 20
-223.8629809798
 10
562.7997435978
 20
-229.1026383836
 10
564.3974896116
 20
-234.3335228169
 10
565.8158934995
 20
-239.543784644
 10
567.0517421206
 20
-244.721620946
 10
568.1022358801
 20
-249.8553022584
 10
568.9649950719
 20
-254.9331991418
 10
569.6380652688
 20
-259.9438085265
 10
570.1199217505
 20
-264.8757797708
 10
570.4094729569
 20
-269.7179403734
 10
570.5060629615
 20
-274.4593212832
 10
570.4094729569
 20
-279.0891817475
 10
570.1199217505
 20
-283.5970336431
 10
569.6380652688
 20
-287.9726652357
 10
568.9649950719
 20
-292.2061643123
 10
568.1022358801
 20
-296.2879406359
 10
567.0517421206
 20
-300.2087476703
 10
565.8158934995
 20
-303.9597035265
 10
564.3974896116
 20
-307.532311083
 10
562.7997435978
 20
-310.9184772346
 10
561.0262748667
 20
-314.110531226
 10
559.0811008954
 20
-317.1012420281
 10
556.9686281285
 20
-319.8838347191
 10
554.6936419965
 20
-322.4520058315
 10
552.2612960745
 20
-324.7999376317
 10
549.6771004084
 20
-326.9223112992
 10
546.9469090325
 20
-328.8143189748
 10
545.5240847284
 20
-329.6754049434
  0
ENDSEC
  0
SECTION
  2
OBJECTS
  0
DICTIONARY
  5
C
330
0
100
AcDbDictionary
281
     1
  3
ACAD_GROUP
350
D
  3
ACAD_LAYOUT
350
1A
  3
ACAD_MLINESTYLE
350
17
  3
ACAD_PLOTSETTINGS
350
19
  3
ACAD_PLOTSTYLENAME
350
E
  3
ACAD_SCALELIST
350
47
  3
DWGPROPS
350
10E
  0
DICTIONARY
  5
D
102
{ACAD_REACTORS
330
C
102
}
330
C
100
AcDbDictionary
281
     1
  0
DICTIONARY
  5
1A
102
{ACAD_REACTORS
330
C
102
}
330
C
100
AcDbDictionary
281
     1
  3
Layout1
350
1E
  3
Layout2
350
26
  3
Model
350
22
  0
DICTIONARY
  5
17
102
{ACAD_REACTORS
330
C
102
}
330
C
100
AcDbDictionary
281
     1
  3
Standard
350
18
  0
DICTIONARY
  5
19
102
{ACAD_REACTORS
330
C
102
}
330
C
100
AcDbDictionary
281
     1
  0
ACDBDICTIONARYWDFLT
  5
E
102
{ACAD_REACTORS
330
C
102
}
330
C
100
AcDbDictionary
281
     1
  3
Normal
350
F
100
AcDbDictionaryWithDefault
340
F
  0
DICTIONARY
  5
47
102
{ACAD_REACTORS
330
C
102
}
330
C
100
AcDbDictionary
281
     1
  3
A0
350
48
  3
A1
350
49
  3
A2
350
4A
  3
A3
350
4B
  3
A4
350
4C
  3
A5
350
4D
  3
A6
350
4E
  3
A7
350
4F
  3
A8
350
50
  3
A9
350
51
  3
B0
350
52
  3
B1
350
53
  3
B2
350
54
  3
B3
350
55
  3
B4
350
56
  3
B5
350
57
  3
B6
350
58
  3
B7
350
59
  3
B8
350
5A
  3
B9
350
5B
  3
C0
350
5C
  3
C1
350
5D
  3
C2
350
5E
  3
C3
350
5F
  3
C4
350
60
  3
C5
350
61
  3
C6
350
62
  3
C7
350
63
  3
C8
350
64
  3
C9
350
65
  3
D0
350
66
  3
D1
350
67
  3
D2
350
68
  0
XRECORD
  5
10E
102
{ACAD_REACTORS
330
C
102
}
330
C
100
AcDbXrecord
280
     1
  1
DWGPROPS COOKIE
  2

  3

  4

  6

  7

  8
b.kav
  9

300
=
301
=
302
=
303
=
304
=
305
=
306
=
307
=
308
=
309
=
 40
0.0
 41
2459935.585327095
 42
2459935.58532728
  1

 90
        0
  0
LAYOUT
  5
1E
102
{ACAD_REACTORS
330
1A
102
}
330
1A
100
AcDbPlotSettings
  1

  2
none_device
  4

  6

 40
0.0
 41
0.0
 42
0.0
 43
0.0
 44
0.0
 45
0.0
 46
0.0
 47
0.0
 48
0.0
 49
0.0
140
0.0
141
0.0
142
1.0
143
1.0
 70
   688
 72
     1
 73
     0
 74
     5
  7

 75
    16
147
1.0
148
0.0
149
0.0
100
AcDbLayout
  1
Layout1
 70
     1
 71
     1
 10
0.0
 20
0.0
 11
420.0
 21
297.0
 12
0.0
 22
0.0
 32
0.0
 14
1.0000000000E+20
 24
1.0000000000E+20
 34
1.0000000000E+20
 15
-1.0000000000E+20
 25
-1.0000000000E+20
 35
-1.0000000000E+20
146
0.0
 13
0.0
 23
0.0
 33
0.0
 16
1.0
 26
0.0
 36
0.0
 17
0.0
 27
1.0
 37
0.0
 76
     0
330
1B
  0
LAYOUT
  5
26
102
{ACAD_REACTORS
330
1A
102
}
330
1A
100
AcDbPlotSettings
  1

  2
none_device
  4

  6

 40
0.0
 41
0.0
 42
0.0
 43
0.0
 44
0.0
 45
0.0
 46
0.0
 47
0.0
 48
0.0
 49
0.0
140
0.0
141
0.0
142
1.0
143
1.0
 70
   688
 72
     1
 73
     0
 74
     5
  7

 75
    16
147
1.0
148
0.0
149
0.0
100
AcDbLayout
  1
Layout2
 70
     1
 71
     2
 10
0.0
 20
0.0
 11
0.0
 21
0.0
 12
0.0
 22
0.0
 32
0.0
 14
0.0
 24
0.0
 34
0.0
 15
0.0
 25
0.0
 35
0.0
146
0.0
 13
0.0
 23
0.0
 33
0.0
 16
1.0
 26
0.0
 36
0.0
 17
0.0
 27
1.0
 37
0.0
 76
     0
330
23
  0
LAYOUT
  5
22
102
{ACAD_REACTORS
330
1A
102
}
330
1A
100
AcDbPlotSettings
  1

  2
none_device
  4
Letter_(8.50_x_11.00_Inches)
  6

 40
6.35
 41
6.35
 42
6.35000508
 43
6.35000508
 44
215.9
 45
279.4
 46
0.0
 47
0.0
 48
0.0
 49
0.0
140
0.0
141
0.0
142
1.0
143
1.0
 70
  1712
 72
     1
 73
     0
 74
     0
  7

 75
     0
147
1.0
148
0.0
149
0.0
100
AcDbLayout
  1
Model
 70
     1
 71
     0
 10
0.0
 20
0.0
 11
279.4
 21
215.9
 12
0.0
 22
0.0
 32
0.0
 14
0.0
 24
0.0
 34
0.0
 15
279.4
 25
215.9
 35
0.0
146
0.0
 13
0.0
 23
0.0
 33
0.0
 16
1.0
 26
0.0
 36
0.0
 17
0.0
 27
1.0
 37
0.0
 76
     0
330
1F
331
29
  0
MLINESTYLE
  5
18
102
{ACAD_REACTORS
330
17
102
}
330
17
100
AcDbMlineStyle
  2
Standard
 70
     0
  3

 62
   256
 51
90.0
 52
90.0
 71
     2
 49
0.5
 62
   256
  6
BYLAYER
 49
-0.5
 62
   256
  6
BYLAYER
  0
ACDBPLACEHOLDER
  5
F
102
{ACAD_REACTORS
330
E
102
}
330
E
  0
SCALE
  5
48
102
{ACAD_REACTORS
330
47
102
}
330
47
100
AcDbScale
 70
     0
300
1:1
140
1.0
141
1.0
290
     1
  0
SCALE
  5
49
102
{ACAD_REACTORS
330
47
102
}
330
47
100
AcDbScale
 70
     0
300
1:2
140
1.0
141
2.0
290
     0
  0
SCALE
  5
4A
102
{ACAD_REACTORS
330
47
102
}
330
47
100
AcDbScale
 70
     0
300
1:4
140
1.0
141
4.0
290
     0
  0
SCALE
  5
4B
102
{ACAD_REACTORS
330
47
102
}
330
47
100
AcDbScale
 70
     0
300
1:5
140
1.0
141
5.0
290
     0
  0
SCALE
  5
4C
102
{ACAD_REACTORS
330
47
102
}
330
47
100
AcDbScale
 70
     0
300
1:8
140
1.0
141
8.0
290
     0
  0
SCALE
  5
4D
102
{ACAD_REACTORS
330
47
102
}
330
47
100
AcDbScale
 70
     0
300
1:10
140
1.0
141
10.0
290
     0
  0
SCALE
  5
4E
102
{ACAD_REACTORS
330
47
102
}
330
47
100
AcDbScale
 70
     0
300
1:16
140
1.0
141
16.0
290
     0
  0
SCALE
  5
4F
102
{ACAD_REACTORS
330
47
102
}
330
47
100
AcDbScale
 70
     0
300
1:20
140
1.0
141
20.0
290
     0
  0
SCALE
  5
50
102
{ACAD_REACTORS
330
47
102
}
330
47
100
AcDbScale
 70
     0
300
1:30
140
1.0
141
30.0
290
     0
  0
SCALE
  5
51
102
{ACAD_REACTORS
330
47
102
}
330
47
100
AcDbScale
 70
     0
300
1:40
140
1.0
141
40.0
290
     0
  0
SCALE
  5
52
102
{ACAD_REACTORS
330
47
102
}
330
47
100
AcDbScale
 70
     0
300
1:50
140
1.0
141
50.0
290
     0
  0
SCALE
  5
53
102
{ACAD_REACTORS
330
47
102
}
330
47
100
AcDbScale
 70
     0
300
1:100
140
1.0
141
100.0
290
     0
  0
SCALE
  5
54
102
{ACAD_REACTORS
330
47
102
}
330
47
100
AcDbScale
 70
     0
300
2:1
140
2.0
141
1.0
290
     0
  0
SCALE
  5
55
102
{ACAD_REACTORS
330
47
102
}
330
47
100
AcDbScale
 70
     0
300
4:1
140
4.0
141
1.0
290
     0
  0
SCALE
  5
56
102
{ACAD_REACTORS
330
47
102
}
330
47
100
AcDbScale
 70
     0
300
8:1
140
8.0
141
1.0
290
     0
  0
SCALE
  5
57
102
{ACAD_REACTORS
330
47
102
}
330
47
100
AcDbScale
 70
     0
300
10:1
140
10.0
141
1.0
290
     0
  0
SCALE
  5
58
102
{ACAD_REACTORS
330
47
102
}
330
47
100
AcDbScale
 70
     0
300
100:1
140
100.0
141
1.0
290
     0
  0
SCALE
  5
59
102
{ACAD_REACTORS
330
47
102
}
330
47
100
AcDbScale
 70
     0
300
1/128" = 1'-0"
140
0.0078125
141
12.0
290
     0
  0
SCALE
  5
5A
102
{ACAD_REACTORS
330
47
102
}
330
47
100
AcDbScale
 70
     0
300
1/64" = 1'-0"
140
0.015625
141
12.0
290
     0
  0
SCALE
  5
5B
102
{ACAD_REACTORS
330
47
102
}
330
47
100
AcDbScale
 70
     0
300
1/32" = 1'-0"
140
0.03125
141
12.0
290
     0
  0
SCALE
  5
5C
102
{ACAD_REACTORS
330
47
102
}
330
47
100
AcDbScale
 70
     0
300
1/16" = 1'-0"
140
0.0625
141
12.0
290
     0
  0
SCALE
  5
5D
102
{ACAD_REACTORS
330
47
102
}
330
47
100
AcDbScale
 70
     0
300
3/32" = 1'-0"
140
0.09375
141
12.0
290
     0
  0
SCALE
  5
5E
102
{ACAD_REACTORS
330
47
102
}
330
47
100
AcDbScale
 70
     0
300
1/8" = 1'-0"
140
0.125
141
12.0
290
     0
  0
SCALE
  5
5F
102
{ACAD_REACTORS
330
47
102
}
330
47
100
AcDbScale
 70
     0
300
3/16" = 1'-0"
140
0.1875
141
12.0
290
     0
  0
SCALE
  5
60
102
{ACAD_REACTORS
330
47
102
}
330
47
100
AcDbScale
 70
     0
300
1/4" = 1'-0"
140
0.25
141
12.0
290
     0
  0
SCALE
  5
61
102
{ACAD_REACTORS
330
47
102
}
330
47
100
AcDbScale
 70
     0
300
3/8" = 1'-0"
140
0.375
141
12.0
290
     0
  0
SCALE
  5
62
102
{ACAD_REACTORS
330
47
102
}
330
47
100
AcDbScale
 70
     0
300
1/2" = 1'-0"
140
0.5
141
12.0
290
     0
  0
SCALE
  5
63
102
{ACAD_REACTORS
330
47
102
}
330
47
100
AcDbScale
 70
     0
300
3/4" = 1'-0"
140
0.75
141
12.0
290
     0
  0
SCALE
  5
64
102
{ACAD_REACTORS
330
47
102
}
330
47
100
AcDbScale
 70
     0
300
1" = 1'-0"
140
1.0
141
12.0
290
     0
  0
SCALE
  5
65
102
{ACAD_REACTORS
330
47
102
}
330
47
100
AcDbScale
 70
     0
300
1-1/2" = 1'-0"
140
1.5
141
12.0
290
     0
  0
SCALE
  5
66
102
{ACAD_REACTORS
330
47
102
}
330
47
100
AcDbScale
 70
     0
300
3" = 1'-0"
140
3.0
141
12.0
290
     0
  0
SCALE
  5
67
102
{ACAD_REACTORS
330
47
102
}
330
47
100
AcDbScale
 70
     0
300
6" = 1'-0"
140
6.0
141
12.0
290
     0
  0
SCALE
  5
68
102
{ACAD_REACTORS
330
47
102
}
330
47
100
AcDbScale
 70
     0
300
1'-0" = 1'-0"
140
12.0
141
12.0
290
     0
  0
ENDSEC
  0
EOF
